Song name
# A B C D E F G H I J K L M N O P Q R S T U V W X Y Z

Allister - Residential Burglary tab

                              RESIDENTIAL BURGLARY
                             As recorded by Allister
                 (From the 1999 Album DEAD ENDS AND GIRLFRIENDS)

Music by Allister
Transcribed by Travis Nutt

   Intro
    Q=176
   4/4
    Gtr III
    E E S S E   E E S S E     E E S S E   Q   Q
||--------------------------|-------------------------|
||o-7-7-7p6p4---7-7-7p6p4---|-7-7-7p6p4-------4-------|
||--------------------------|-------------6-----------|
||--------------------------|-------------------------|
||o-------------------------|-------------------------|
||--------------------------|-------------------------|
|
|   Gtrs I, II
|   E E S S S S E E S S S S   E E S S S S E E S S S S
||--------------------------|-------------------------|
||o-------------------------|-------------------------|
||--------------8-8-8-8-8-8-|-4-4-4-4-4-4-6-6-6-6-6-6-|
||--4-4-4-4-4-4-8-8-8-8-8-8-|-4-4-4-4-4-4-6-6-6-6-6-6-|
||o-4-4-4-4-4-4-6-6-6-6-6-6-|-2-2-2-2-2-2-4-4-4-4-4-4-|
||--2-2-2-2-2-2-------------|-------------------------|


  E E S S E   E E S S E     E E S S E   Q   Q
|-------------------------|--------------------------||
|-7-7-7p6p4---7-7-7p6p4---|-7-7-7p6p4-------4-------o||
|-------------------------|-------------6------------||
|-------------------------|--------------------------||
|-------------------------|-------------------------o||
|-------------------------|--------------------------||
|
| E E S S S S E E S S S S   E E S S S S E E S S S S
|-------------------------|--------------------------||
|-------------------------|-------------------------o||
|-------------8-8-8-8-8-8-|-4-4-4-4-4-4-6-6-6-6-6-6--||
|-4-4-4-4-4-4-8-8-8-8-8-8-|-4-4-4-4-4-4-6-6-6-6-6-6--||
|-4-4-4-4-4-4-6-6-6-6-6-6-|-2-2-2-2-2-2-4-4-4-4-4-4-o||
|-2-2-2-2-2-2-------------|--------------------------||


 Verse 1
                     >
  W                 +W                  +W                  +W
|-----------------|-------------------|-------------------|-------------------|
|-----------------|-------------------|-------------------|-------------------|
|-6---------------|-(6)---------------|-(6)---------------|-(6)---------------|
|-----------------|-------------------|-------------------|-------------------|
|-----------------|-------------------|-------------------|-------------------|
|-----------------|-------------------|-------------------|-------------------|
|
| E E E E E E E E    E  E E E E E E E    E  E E E E E E E    E  E E E E E E E
|-----------------|-------------------|-------------------|-------------------|
|-----------------|-------------------|-------------------|-------------------|
|-----------------|--4--4-4-4-6-6-6-6-|-------------------|--4--4-4-4-6-6-6-6-|
|-4-4-4-4-4-4-4-4-|--4--4-4-4-6-6-6-6-|--4--4-4-4-4-4-4-4-|--4--4-4-4-6-6-6-6-|
|-4-4-4-4-4-4-4-4-|--2--2-2-2-4-4-4-4-|--4--4-4-4-4-4-4-4-|--2--2-2-2-4-4-4-4-|
|-2-2-2-2-2-2-2-2-|-------------------|--2--2-2-2-2-2-2-2-|-------------------|


  Gtrs I, II
  E E E E E E E E   E E E E E E E E   E E E E E E E E   E E E E E E E E
|-----------------|-----------------|-----------------|-----------------||
|-----------------|-----------------|-----------------|-----------------||
|-----------------|-4-4-4-4-6-6-6-6-|-----------------|-4-4-4-4-6-6-6-6-||
|-4-4-4-4-4-4-4-4-|-4-4-4-4-6-6-6-6-|-4-4-4-4-4-4-4-4-|-4-4-4-4-6-6-6-6-||
|-4-4-4-4-4-4-4-4-|-2-2-2-2-4-4-4-4-|-4-4-4-4-4-4-4-4-|-2-2-2-2-4-4-4-4-||
|-2-2-2-2-2-2-2-2-|-----------------|-2-2-2-2-2-2-2-2-|-----------------||


 Pre-Chorus
  $
  E E E E E E E E   E E E E E E E E   E E E E E E E E   E E E E E E E E
|-----------------|-----------------|-----------------|-----------------|
|-----------------|-----------------|-----------------|-----------------|
|-4-4-4-4-4-4-4-4-|-----------------|-6-6-6-6-6-6-6-6-|-----------------|
|-4-4-4-4-4-4-4-4-|-4-4-4-4-4-4-4-4-|-6-6-6-6-6-6-6-6-|-4-4-4-4-4-4-4-4-|
|-2-2-2-2-2-2-2-2-|-4-4-4-4-4-4-4-4-|-4-4-4-4-4-4-4-4-|-4-4-4-4-4-4-4-4-|
|-----------------|-2-2-2-2-2-2-2-2-|-----------------|-2-2-2-2-2-2-2-2-|


  E E E E E E E E   E E E E E E E E   E E E E E E E E   E E E E E E E E
|-----------------|-----------------|-----------------|-----------------||
|-----------------|-----------------|-----------------|-----------------||
|-4-4-4-4-4-4-4-4-|-----------------|-6-6-6-5-6-6-6-5-|-6-6-6-5-6-6-6-5-||
|-4-4-4-4-4-4-4-4-|-4-4-4-4-4-4-4-4-|-6-6-6-5-6-6-6-5-|-6-6-6-5-6-6-6-5-||
|-2-2-2-2-2-2-2-2-|-4-4-4-4-4-4-4-4-|-4-4-4-3-4-4-4-3-|-4-4-4-3-4-4-4-3-||
|-----------------|-2-2-2-2-2-2-2-2-|-----------------|-----------------||


 Chorus
  E E S S S S E E S S S S   E E S S S S E E S S S S
|-------------------------|-------------------------|
|-------------------------|-------------------------|
|-------------8-8-8-8-8-8-|-4-4-4-4-4-4-6-6-6-6-6-6-|
|-4-4-4-4-4-4-8-8-8-8-8-8-|-4-4-4-4-4-4-6-6-6-6-6-6-|
|-4-4-4-4-4-4-6-6-6-6-6-6-|-2-2-2-2-2-2-4-4-4-4-4-4-|
|-2-2-2-2-2-2-------------|-------------------------|


  E E S S S S E E S S S S   E E S S S S E E S S S S
|-------------------------|-------------------------|
|-------------------------|-------------------------|
|-------------8-8-8-8-8-8-|-4-4-4-4-4-4-6-6-6-6-6-6-|
|-4-4-4-4-4-4-8-8-8-8-8-8-|-4-4-4-4-4-4-6-6-6-6-6-6-|
|-4-4-4-4-4-4-6-6-6-6-6-6-|-2-2-2-2-2-2-4-4-4-4-4-4-|
|-2-2-2-2-2-2-------------|-------------------------|


  Gtr III
   TP                         TP
   W                          W
|--------------------------|--------------------------|
|--------------------------|--------------------------|
|-11-----------------------|-13-----------------------|
|--x-----------------------|--x-----------------------|
|--9-----------------------|-11-----------------------|
|--------------------------|--------------------------|
|
| Gtrs I, II
|  E E S S S S E E S S S S    E E S S S S E E S S S S
|--------------------------|--------------------------|
|--------------------------|--------------------------|
|--------------8-8-8-8-8-8-|--4-4-4-4-4-4-6-6-6-6-6-6-|
|--4-4-4-4-4-4-8-8-8-8-8-8-|--4-4-4-4-4-4-6-6-6-6-6-6-|
|--4-4-4-4-4-4-6-6-6-6-6-6-|--2-2-2-2-2-2-4-4-4-4-4-4-|
|--2-2-2-2-2-2-------------|--------------------------|


                                                 To Coda
   TP                         TP           TP
   W                          H            Q.        E
|--------------------------|------------------------------|
|--------------------------|------------------------------|
|-15-----------------------|-16-----------18--------18\---|
|--x-----------------------|--x------------x---------x----|
|-13-----------------------|-14-----------16--------16\---|
|--------------------------|------------------------------|
|
|  E E S S S S E E S S S S    E E S S S S  E  E S S  S  S
|--------------------------|------------------------------|
|--------------------------|------------------------------|
|--------------8-8-8-8-8-8-|--4-4-4-4-4-4--6--6-6-6--6--6-|
|--4-4-4-4-4-4-8-8-8-8-8-8-|--4-4-4-4-4-4--6--6-6-6--6--6-|
|--4-4-4-4-4-4-6-6-6-6-6-6-|--2-2-2-2-2-2--4--4-4-4--4--4-|
|--2-2-2-2-2-2-------------|------------------------------|


 Verse 2
  Gtrs I, II
  E E E E E E E E   E E E E E E E E   E E E E E E E E   E E E E E E E E
|-----------------|-----------------|-----------------|-----------------|
|-----------------|-----------------|-----------------|-----------------|
|-----------------|-4-4-4-4-6-6-6-6-|-----------------|-4-4-4-4-6-6-6-6-|
|-4-4-4-4-4-4-4-4-|-4-4-4-4-6-6-6-6-|-4-4-4-4-4-4-4-4-|-4-4-4-4-6-6-6-6-|
|-4-4-4-4-4-4-4-4-|-2-2-2-2-4-4-4-4-|-4-4-4-4-4-4-4-4-|-2-2-2-2-4-4-4-4-|
|-2-2-2-2-2-2-2-2-|-----------------|-2-2-2-2-2-2-2-2-|-----------------|


                                                          D.S. al Coda
  E E E E E E E E   E E E E E E E E   E E E E E E E E   E E E E E E E E
|-----------------|-----------------|-----------------|-----------------||
|-----------------|-----------------|-----------------|-----------------||
|-----------------|-4-4-4-4-6-6-6-6-|-----------------|-4-4-4-4-6-6-6-6-||
|-4-4-4-4-4-4-4-4-|-4-4-4-4-6-6-6-6-|-4-4-4-4-4-4-4-4-|-4-4-4-4-6-6-6-6-||
|-4-4-4-4-4-4-4-4-|-2-2-2-2-4-4-4-4-|-4-4-4-4-4-4-4-4-|-2-2-2-2-4-4-4-4-||
|-2-2-2-2-2-2-2-2-|-----------------|-2-2-2-2-2-2-2-2-|-----------------||


   Outro
    &
    Gtr III
    E E S S E   E E S S E     E E S S E   Q   Q         4x
||--------------------------|---------------------------||
||o-7-7-7p6p4---7-7-7p6p4---|-7-7-7p6p4-------4--------o||
||--------------------------|-------------6-------------||
||--------------------------|---------------------------||
||o-------------------------|--------------------------o||
||--------------------------|---------------------------||
|
|   Gtrs I, II
|   E E S S S S E E S S S S   E E S S S S E E S S S S   4x
||--------------------------|---------------------------||
||o-------------------------|--------------------------o||
||--------------8-8-8-8-8-8-|-4-4-4-4-4-4-6-6-6-6-6-6---||
||--4-4-4-4-4-4-8-8-8-8-8-8-|-4-4-4-4-4-4-6-6-6-6-6-6---||
||o-4-4-4-4-4-4-6-6-6-6-6-6-|-2-2-2-2-2-2-4-4-4-4-4-4--o||
||--2-2-2-2-2-2-------------|---------------------------||


  W          +W
|----------|--------*|
|----------|--------*|
|-6--------|-(6)----*|
|----------|--------*|
|----------|--------*|
|----------|--------*|
|
| W          +W
|----------|--------*|
|----------|--------*|
|----------|--------*|
|-4--------|-(4)----*|
|-4--------|-(4)----*|
|-2--------|-(2)----*|
Tap to rate this tab
# A B C D E F G H I J K L M N O P Q R S T U V W X Y Z