Song name
# A B C D E F G H I J K L M N O P Q R S T U V W X Y Z

Allister - Moper tab

Help us improve GuitareTab! Take a short survey!
                                      MOPER
                             As recorded by Allister
                 (From the 1999 Album DEAD ENDS AND GIRLFRIENDS)

Music by Allister
Transcribed by Travis Nutt

 Intro
  Q=118
 4/4
  Gtr III
  S S S E S S S S S S E S S S   S S S E S S S E. E. E
|-----------------------------|---------------5--4--2--|
|-2h5-5-5-5-5-5-2h5-5-5-5-5-5-|-2h5-5-5-5-5-2----------|
|-----------------------------|------------------------|
|-----------------------------|------------------------|
|-----------------------------|------------------------|
|-----------------------------|------------------------|
|
| Gtrs I, II
| H             H               H             H
|-----------------------------|------------------------|
|-----------------------------|------------------------|
|-----------------------------|-9-------------7--------|
|-7-------------4-------------|-9-------------7--------|
|-7-------------4-------------|-7-------------5--------|
|-5-------------2-------------|------------------------|


  S S S E S S S S S S E S S S   H    S S S E S E
|-----------------------------|-5----------------|
|-2h5-5-5-5-5-5-2h5-5-5-5-5-5-|-5--------2-5-2---|
|-----------------------------|-2----2h4-------4-|
|-----------------------------|------------------|
|-----------------------------|------------------|
|-----------------------------|------------------|
|
| H             H               H    S S S E S E
|-----------------------------|------------------|
|-----------------------------|------------------|
|-----------------------------|-7----7-7-7-7-7-7-|
|-7-------------4-------------|-7----7-7-7-7-7-7-|
|-7-------------4-------------|-5----5-5-5-5-5-5-|
|-5-------------2-------------|------------------|


  S S S E   S S S S S S E   S S S   S S S E   S S S E.   E.     E
|---------------------------------|-----------------5----4------2---|
|-2h5-5-5---5-5-5-2h5-5-5---5-5-5-|-2h5-5-5---5-5-2-----------------|
|---------------------------------|---------------------------------|
|---------------------------------|---------------------------------|
|---------------------------------|---------------------------------|
|---------------------------------|---------------------------------|
|
| E   S S S S S S E   S S S S S S   E   S S S S S S E  S S  S S S S
|---------------------------------|---------------------------------|
|---------------------------------|---------------------------------|
|---------------------------------|-9---9-9-9-9-9-9-7--7-7--7-7-7-7-|
|-7---7-7-7-7-7-7-4---4-4-4-4-4-4-|-9---9-9-9-9-9-9-7--7-7--7-7-7-7-|
|-7---7-7-7-7-7-7-4---4-4-4-4-4-4-|-7---7-7-7-7-7-7-5--5-5--5-5-5-5-|
|-5---5-5-5-5-5-5-2---2-2-2-2-2-2-|---------------------------------|


  S S S E   S S S S S S E   S S S   H             S S S E   S E
|---------------------------------|-5-----------------------------||
|-2h5-5-5---5-5-5-2h5-5-5---5-5-5-|-5-----------------2-5---2-----||
|---------------------------------|-2-------------2h4---------4---||
|---------------------------------|-------------------------------||
|---------------------------------|-------------------------------||
|---------------------------------|-------------------------------||
|
| E   S S S S S S E   S S S S S S   E S S S S S S E   S S S S S S
|---------------------------------|-------------------------------||
|---------------------------------|-------------------------------||
|---------------------------------|-9-9-9-9-9-9-9-7---7-7-7-7-7-7-||
|-7---7-7-7-7-7-7-4---4-4-4-4-4-4-|-9-9-9-9-9-9-9-7---7-7-7-7-7-7-||
|-7---7-7-7-7-7-7-4---4-4-4-4-4-4-|-7-7-7-7-7-7-7-5---5-5-5-5-5-5-||
|-5---5-5-5-5-5-5-2---2-2-2-2-2-2-|-------------------------------||


   Verse
    $$
    Gtrs I, II
    E S S S S S S S S S S S S S S   E S S S S S S S S S S S S S S
||--------------------------------|-------------------------------|
||o-------------------------------|-------------------------------|
||--------------------------------|-------------------------------|
||--7-7-7-7-7-7-7-7-7-7-7-7-7-7-7-|-2-2-2-2-2-2-2-2-2-2-2-2-2-2-2-|
||o-7-7-7-7-7-7-7-7-7-7-7-7-7-7-7-|-2-2-2-2-2-2-2-2-2-2-2-2-2-2-2-|
||--5-5-5-5-5-5-5-5-5-5-5-5-5-5-5-|-0-0-0-0-0-0-0-0-0-0-0-0-0-0-0-|


  E S S S S S S S S S S S S S S   E E S S S E E S S S S S
|-------------------------------|--------------------------||
|-------------------------------|-------------------------o||
|-------------------------------|-7-7-7-7-7-7-7-7-7-7-7-7--||
|-4-4-4-4-4-4-4-4-4-4-4-4-4-4-4-|-7-7-7-7-7-7-7-7-7-7-7-7--||
|-4-4-4-4-4-4-4-4-4-4-4-4-4-4-4-|-5-5-5-5-5-5-5-5-5-5-5-5-o||
|-2-2-2-2-2-2-2-2-2-2-2-2-2-2-2-|--------------------------||


 Pre-Chorus
  E S S S S S S E S S S S S S   E S S S S S S E S S S S S S
|-----------------------------|-----------------------------|
|-----------------------------|-----------------------------|
|-9-9-9-9-9-9-9-9-9-9-9-9-9-9-|-7-7-7-7-7-7-7-7-7-7-7-7-7-7-|
|-9-9-9-9-9-9-9-9-9-9-9-9-9-9-|-7-7-7-7-7-7-7-7-7-7-7-7-7-7-|
|-7-7-7-7-7-7-7-7-7-7-7-7-7-7-|-5-5-5-5-5-5-5-5-5-5-5-5-5-5-|
|-----------------------------|-----------------------------|


  E S S S S S S E S S S S S S   W
|-----------------------------|------|
|-----------------------------|------|
|-9-9-9-9-9-9-9-9-9-9-9-9-9-9-|-7----|
|-9-9-9-9-9-9-9-9-9-9-9-9-9-9-|-7----|
|-7-7-7-7-7-7-7-7-7-7-7-7-7-7-|-5----|
|-----------------------------|------|


 Chorus
  $
  E S S S S S S E S S S S S S   E S S S S S S E S S S S S S
|-----------------------------|-----------------------------|
|-----------------------------|-----------------------------|
|-----------------------------|-9-9-9-9-9-9-9-7-7-7-7-7-7-7-|
|-7-7-7-7-7-7-7-4-4-4-4-4-4-4-|-9-9-9-9-9-9-9-7-7-7-7-7-7-7-|
|-7-7-7-7-7-7-7-4-4-4-4-4-4-4-|-7-7-7-7-7-7-7-5-5-5-5-5-5-5-|
|-5-5-5-5-5-5-5-2-2-2-2-2-2-2-|-----------------------------|


  E S S S S S S E S S S S S S   E S S S S S S E S S S S S S
|-----------------------------|-----------------------------|
|-----------------------------|-----------------------------|
|-----------------------------|-9-9-9-9-9-9-9-7-7-7-7-7-7-7-|
|-7-7-7-7-7-7-7-4-4-4-4-4-4-4-|-9-9-9-9-9-9-9-7-7-7-7-7-7-7-|
|-7-7-7-7-7-7-7-4-4-4-4-4-4-4-|-7-7-7-7-7-7-7-5-5-5-5-5-5-5-|
|-5-5-5-5-5-5-5-2-2-2-2-2-2-2-|-----------------------------|


  E S S S S S S E S S S S S S   E S S S S S S E S S S S S S
|-----------------------------|-----------------------------|
|-----------------------------|-----------------------------|
|-----------------------------|-9-9-9-9-9-9-9-7-7-7-7-7-7-7-|
|-7-7-7-7-7-7-7-4-4-4-4-4-4-4-|-9-9-9-9-9-9-9-7-7-7-7-7-7-7-|
|-7-7-7-7-7-7-7-4-4-4-4-4-4-4-|-7-7-7-7-7-7-7-5-5-5-5-5-5-5-|
|-5-5-5-5-5-5-5-2-2-2-2-2-2-2-|-----------------------------|


                                                   To Coda
  E S S S S S S E S S S S S S   E S S S S S S E S S S S S S
|-----------------------------|-----------------------------|
|-----------------------------|-----------------------------|
|-----------------------------|-----------------------------|
|-7-7-7-7-7-7-7-4-4-4-4-4-4-4-|-2-2-2-2-2-2-2-2-2-2-2-2-2-2-|
|-7-7-7-7-7-7-7-4-4-4-4-4-4-4-|-2-2-2-2-2-2-2-2-2-2-2-2-2-2-|
|-5-5-5-5-5-5-5-2-2-2-2-2-2-2-|-0-0-0-0-0-0-0-0-0-0-0-0-0-0-|


                      D.S.S.
  E S S S S S S E S S S S S S
|-----------------------------||
|-----------------------------||
|-7-7-7-7-7-7-7-7-7-7-7-7-7-7-||
|-7-7-7-7-7-7-7-7-7-7-7-7-7-7-||
|-5-5-5-5-5-5-5-5-5-5-5-5-5-5-||
|-----------------------------||


 Breakdown
  E E S E E. E S S S S   E E S E E. E S S S S   E E S E E. E S S S S
|----------------------|----------------------|----------------------|
|----------------------|----------------------|----------------------|
|-4-4-4-6-7--7-7-7-7-7-|-------6-9--9-9-9-9-9-|-4-4-4-6-7--7-7-7-7-7-|
|-4-4-4-6-7--7-7-7-7-7-|-7-7-7-6-9--9-9-9-9-9-|-4-4-4-6-7--7-7-7-7-7-|
|-2-2-2-4-5--5-5-5-5-5-|-7-7-7-4-7--7-7-7-7-7-|-2-2-2-4-5--5-5-5-5-5-|
|----------------------|-5-5-5----------------|----------------------|


                      D.S. al Coda
  E S S S S S S E S S S S S S   W
|-----------------------------|-------||
|-----------------------------|-------||
|-9-9-9-9-9-9-9-9-9-9-9-9-9-9-|-7-----||
|-9-9-9-9-9-9-9-9-9-9-9-9-9-9-|-7-----||
|-7-7-7-7-7-7-7-7-7-7-7-7-7-7-|-5-----||
|-----------------------------|-------||


  &
  W          +W
|----------|--------*|
|----------|--------*|
|----------|--------*|
|-7--------|-(7)----*|
|-7--------|-(7)----*|
|-5--------|-(5)----*|
Related for Moper tab