Song name
# A B C D E F G H I J K L M N O P Q R S T U V W X Y Z

Allister - D2 tab

This is the Tab for one of the BEST Allister songs, found on the Drive Thru Records CD.
This is their newest song too (I think)
Winno winnong@hotmail.com

Tuning: Each string 1/2 step down (D#G#C#F#A#D#)
Key: PM=Palm Mute


  Intro (Main Riff):
  Guitar 1
D#|-----|-----|-----|-----|
A#|-----|-----|-----|-----|
F#|--9--|--5--|--7--|--9--|
C#|--9--|--5--|--7--|--9--|
G#|--7--|--3--|--5--|--7--|
D#|-----|-----|-----|-----|

  Guitar 2
D#|-----------------------------------|
A#|--0--0-3-5-0-3-5-0-3-5-0-3-5-0-3-5-|
F#|-----------------------------------|
C#|-----------------------------------|
G#|-----------------------------------|
D#|-----------------------------------|

  Second bit of the Intro for Guitar 3 (Guitar 2 prerecords):
 
  E pwrchord & C pwrchord   D pwrchord              E pwrchord
D#|-3-2-0-3-2-0-3-2-0-3-2-0|5-3-0-5-3-0-5-3-0-5-3-0|10-9-7-10-9-7-10-9-7|
A#|------------------------|------------------------|--------------------|
F#|------------------------|------------------------|--------------------|
C#|------------------------|------------------------|--------------------|
G#|------------------------|------------------------|--------------------|
D#|------------------------|------------------------|--------------------|

  Verse:
D#|-----|-----|-----|-----|
A#|-----|-----|-----|-----|
F#|--9--|--5--|--7--|--9--|
C#|--9--|--5--|--7--|--9--|
G#|--7--|--3--|--5--|--7--|
D#|-----|-----|-----|-----|

  Pre Chorus:        Riff in the 1st Part of PreChorus:
D#|-----|-----|-----||-----------------|
A#|-----|-----|-----||-8-8-8-8-7-7-7-5-|
F#|--5--|--7--|-----||-----------------|
C#|--5--|--7--|--5--||-----------------|
G#|--3--|--5--|--5--||-----------------|
D#|-----|-----|--3--||-----------------|

  Chorus:
D#|-----|-----|-----|-----|
A#|-----|-----|-----|-----|
F#|-----|--7--|--5--|--5--|
C#|--5--|--7--|--5--|--5--|
G#|--5--|--5--|--3--|--3--|
D#|--3--|-----|-----|-----|

   Instrumental (After 2nd Chorus, Towards end of song):
  
   Guitar 1
D#|-----------|-----------|-----------|---------------------------|
A#|-----------|-----------|-----------|---------------------------|
F#|--9--9-9-9-|--5--5-5-5-|--7--7-7-7-|--7-7--7-7--5-5--5-5--9-7--|
C#|--9--9-9-9-|--5--5-5-5-|--7--7-7-7-|--7-7--7-7--5-5--5-5--9-7--|
G#|--7--7-7-7-|--3--3-3-3-|--5--5-5-5-|--5-5--5-5--3-3--3-3--7-5--|
D#|-----------|-----------|-----------|---------------------------|
        PM....      PM....      PM....        PM.       PM.

   Guitar 2
D#|------------| Played after every pwrchord
A#|--5-0-3-5-0-| 
F#|------------|
C#|------------|
G#|------------|
D#|------------|

Well, thats about it
Sorry if it looks messy with all the pwrchords, 
Just that, thats all they use!
Winno winnong@hotmail.com
Tap to rate this tab
# A B C D E F G H I J K L M N O P Q R S T U V W X Y Z