Guitaretab - guitar tabs
Song name
# A B C D E F G H I J K L M N O P Q R S T U V W X Y Z

Allister - A Lotta Nerve tab

-------------------------------------------------------------------------------
			 A LOTTA NERVE (INTRO) - Allister
-------------------------------------------------------------------------------
Tabbed by: Ben A
Email: benbowlsbeamers@msn.com

Tuning: Standard
[ Tab from: http://www.guitaretab.com/a/allister/83775.html ]
Intro
e|---------------------------------------------------------------------------|
B|---------------------------------------------------------------------------|
G|-6-6-----------------------666---------------------------------------------|
D|-6-666-4-4-3/4-3/43/4--x3--66666-4-4-3/4-3/43/4----------------------------|
A|-4-466-4-4-3/4-3/43/4------44466-4-4-3/4-3/43/4----------------------------|
E|----44-2-2-1/2-1/21/2---------44-2-2-1/2-1/21/2----------------------------|

Take the slides as a pinch of salt, they are there to emphesise the quick change of powerchord
Related for A Lotta Nerve tab
Advertisement will be closed in 10 seconds