Song name
# A B C D E F G H I J K L M N O P Q R S T U V W X Y Z

Allman Brothers Band - Jessica tab

e |---------9--10--12--10--9--------------------------|
b |-----10--------------------10----------------------|
g |---9---------------------------9--7--6--7--9-------|
d |---------------------------------------------------|
a |---------------------------------------------------|
E |---------------------------------------------------|


e |---------9--10--9----------------------------------|
b |-----10------------10------------------------------|
g |---9-------------------9--7--6--7--9---------------|
d |--------------------------------------7------------|
a |---------------------------------------------------|
E |---------------------------------------------------|


e |---------9--10--12--10--9--------------------------|
b |-----10--------------------10-----------------7----|
g |---9---------------------------9--7--6--7--9-----9-|
d |---------------------------------------------------|
a |---------------------------------------------------|
E |---------------------------------------------------|


e |---------9--10--9----------------------------------|
b |-----10------------10------------------------------|
g |---9-------------------9--7--6--7--9---------------|
d |--------------------------------------7------------|
a |---------------------------------------------------|
E |---------------------------------------------------|
Tap to rate this tab
 
# A B C D E F G H I J K L M N O P Q R S T U V W X Y Z