Song name
# A B C D E F G H I J K L M N O P Q R S T U V W X Y Z

Allman Brothers - Soulshine tab

Key Bb
INTRO

e|-------------------------------------------------------------------------|
B|------------------------------------4---6--------------------------------|
G|----------3--3-------5b--5b-~--------------------------------------------|
D|-----/5----------3-------------------------------------------------------|
A|-------------------------------------------------------------------------|
E|-------------------------------------------------------------------------|

e|-------------------------------------------------------------------------|
B|-------------------------------------------------------------------------|
G|---5b---5--5-~------5-br-/-3----------3--3---5---------------------------|
D|--------------------------------3/5--------------------------------------|
A|-------------------------------------------------------------------------|
E|-------------------------------------------------------------------------|

e|-------------------------------------------------------------------------|
B|---------------------------------------11--11----13b--13b-~--------------|
G|----5br/3-----3--------------3/---12-------------------------------------|
D|-------------------5-----------------------------------------------------|
A|-----------------------4/5-----------------------------------------------|
E|-------------------------------------------------------------------------|

e|---11--13----------------------------------------------------------------|
B|-------------13b----13--13-~----13br/11----------11--11--11--------------|
G|---------------------------------------------12--------------------------|
D|-------------------------------------------------------------------------|
A|-------------------------------------------------------------------------|
E|-------------------------------------------------------------------------|

e|--13b----13--11----------------------------------------------------------|
B|---------------------14-----11--11-~------13br-13br-~--------------------|
G|-------------------------------------------------------------------------|
D|-------------------------------------------------------------------------|
A|-------------------------------------------------------------------------|
E|-------------------------------------------------------------------------|


----when you-------------------to--guide-----------days------------------

e|-----------6--------------------------------8---------6/8\6-------------|
B|-----------6-------------6------------------8---------6/8\6-------------|
G|-----------7-------------5------------------8---------------------------|
D|-------------------------7----------------------------------------------|
A|------------------------------------------------------------------------|
E|------------------------------------------------------------------------|

-----when the-----------bright----------you've lost----way----------------

e|---------6----------------------------------8-----------6-------6--------|
B|---------6---------------6------------------8-----------6---7h8----------|
G|---------7---------------5------------------8---------------8------------|
D|-------------------------7-----------------------------------------------|
A|-------------------------------------------------------------------------|
E|-------------------------------------------------------------------------|

--when the candle--------home------------burn so--------a-way-----------

e|-----6--------------------------------------8-------------10--8--6-------|
B|-----6------------------6-------------------8----------------------------|
G|-----7------------------5-------------------8----------/10----8--7-------|
D|------------------------7------------------------------------------------|
A|-------------------------------------------------------------------------|
E|-------------------------------------------------------------------------|

yeah, you got----------soul-shine------Just-like-------to say---------------

e|----6----------------------------------3----3-------4-----4--------------|
B|----6-------------------6----6---------3----3-------4-----4--------------|
G|----7-------------------5----5---------3----3-------5-----5--------------|
D|------------------------7----------------------------6-----6-------------|
A|-------------------------------------------------------------------------|
E|-------------------------------------------------------------------------|


Chorus..

Soul Shine..................sun--shine...................moon-shine.........

e|-----6-----6----6--------1----1------------------------------------------|
B|-----6-----6----6--------1----1-----------------8------------------------|
G|-----7-----7-------------2----2-----------------8-------------8----------|
D|-----8-------------------3----------------------8-------------8----------|
A|-----8-------------------3----------------------6--------/10-------------|
E|-----6-------------------1-----------------------------------------------|

than rain............well-now....mind....feel-this........way-sometimes.....


e|--6------6-----------------6-------6/-------------1----1-----------------|
B|--6------6--------------6--6-------6/-------------1----1-----------------|
G|--7------7--------------7-------------------------2----2-----------------|
D|--8-----------------------------------------------3----3-----------------|
A|--8-----------------------------------------------3----------------------|
E|---------------------------------------------------1---------------------|

....soul--shine.............shine-till............day............let-me-tell

e|-----3----3------------4----4----------6---6-----/8\6--------------------|
B|-----3----3------------4----4----------6---6-----/8\6--------------------|
G|-----3----3------------5----5----------7---7-----------------------------|
D|-----5-----------------6---------------8---------------------------------|
A|-----------------------6-------------------------------------------------|
E|-----------------------4-------------------------------------------------|

Repeat Verse..1X..Chorus..1X..

Bridge:

...(Let-ring)..............Sometimes.a.man......can-feel..........emptyness.

e|---6------1---1----3---3------3----3-------------------------------------|
B|---6------1---1----3---3------3----3-----------4------------4------------|
G|---7------2---2----3---3------3----3-----------3------------3------------|
D|----------3---3----5---5----------------5------5------------5------------|
A|-------------------------------------------------------------------------|
E|-------------------------------------------------------------------------|

....................................like-a-woman........very-soul......whoa.

e|-------------------------------------------------6---------6-------------|
B|------4--------4-------4-----4--------4---------6---------6--------------|
G|-----3-----3---3H5----3-----3--------3----------7------------------------|
D|--/5-------------------------5------/5-----------------------------------|
A|-------------------------------------------------------------------------|
E|-------------------------------------------------------------------------|

........Well...........A-woman-to...knows......she can......................

e|--6-----6------5------5----5-----------5---------------------------------|
B|--6-----6------6------6----6-----------6---------------------------------|
G|---------------7---7-----7--------7--7-------8-----------8---------------|
D|----------------------------------------------8-----------8--------------|
A|----------------------------------------------6------/10------10---------|
E|-------------------------------------------------------------------------|

.........................And-when...world-seems-you-got...take-control......

e|------------------------------4-------4---------------------1---1--------|
B|------------------------------4-------4----4--4-------------1---1--------|
G|---8-----8--------8----------5--------5----5--5---------2--2---2---------|
D|---8H10--8H10----8----------------6--------------------3---3---3---------|
A|---------------------------------------------------------3---------------|
E|---------------------------------------------------------1---------------|

...what-i-tell-you...................(solo-next)............................

e|---1---1-----------------------------18\---------------------------------|
B|---1---1-----------------------------------------------------------------|
G|---2---2-----------------------15----------------------------------------|
D|---3---3---------/15-----17----------------------------------------------|
A|-------------------------------------------------------------------------|
E|-------------------------------------------------------------------------|
Tap to rate this tab
# A B C D E F G H I J K L M N O P Q R S T U V W X Y Z