Song name
# A B C D E F G H I J K L M N O P Q R S T U V W X Y Z

Allman Brothers - Blue Sky tab

Blue Sky
Allman Brothers Band

Dicky Betts:Lead Guitar and Lead Vocal
Duane Allman:Lead Guitar and Acoustic Guitar
Berry Oakley:Bass
Gregg Allman:Vocal,Organ,and Electric Piano
Butch Trucks:Drums and Tambourine
Jai Johanny Johanson:Drums
________________________________________________
Chords:
E 022100
A 002220
B 244322
D 000232
F#m 044200

Intro:
E          A               E                      A               E
------------------------------------------------------------------------------|
------------------------------------------------------------------------------|  
-0-------0-5-------5-8-5---0---0--------0-------0-5-------5-8-5---0---0-------|    
-0-0-0h2---5-5-5h7-------7-0-0---2p0----0-0-0h2---5-5-5h7-------7-0-0---2p0---|
-0---------5---------5-5-5-0---------2--0---------5---------5-5-5-0---------2-|  
-0---------5---------------0------------0---------5---------------0-----------|
   E        D              A             E
---0--------10-------------5-------------0-------|
---0--0-----10----------10-5-------5-----0-------|
---0----2-0-10----10h12----5---5h7-------0-------|
---0--------10-10----------5-5-----------0-------|
-------------------------------------------------|
-------------------------------------------------|


[E]Walk along the[B] river,[A] sweet[E] lullaby
[E]It just keeps on[B] flowing
[A]It don't worry bout where it's going, no no
__________________________________
-------------------------------   
-------------------------------  
-------------------------------  
-2h4-2-0-----------------------   
---------2-0--------------5-5-- 
-------------4p2-4-0---5h7-----

[E]Don't fly Mister[B] Bluebird, I'm just[A] walking down the[E] road
[E]Early morning[B] sunshine,[A] tell me all I need to know
________________________________________
--------------------------5-7--9p7-5--
--------------------5--7--------------
-----------------2--------------------
------0--2p0-2/4----5--5--------------
-0--2---------------------------------
--------------------------------------

Chorus:
[B]You're my[A] blue sky,[E] you're my sunny[A] day
[B]Lord you know it[A] makes me high when you[E] turn your love my[A] way
[A]Turn your love my[F#m] way, yeah

[During solo,rhythm acoustic plays E,B,A,E,E,B,A,E over and over]
Solo:
E--------------------------------------------------------------------------
B--------------------------------------------------------------------------
G--11--9---11--13-11p9------11p9-----9--11--11-----------------------------
D--------------------------------11----------------------------------------
A--------------------------------------------------------------------------
E--------------------------------------------------------------------------

E--------------------------------------------------------------------------
B----------10p9------------------------------------------------------------
G-9---9h11------11p9---11---^-9-----9h11p9----9------9---------------------
D-------------11----------------------------------11-----------------------
A--------------------------------------------------------------------------
E--------------------------------------------------------------------------

E--------------------------------------------------------------------------
B------------------------------------------12-14---12-14/17-14-------------
G-------------------------9-11-9-----11/13---------------------13-9--------
D---11-7-----7-----7-9/11--------------------------------------------------
A--------------------------------------------------------------------------
E--------------------------------------------------------------------------

E--------------------------------------------------------------------------
B--------------------------------------------------9-10p9------------------
G---9-11^-9-----9-9---------------9-9-9---9-9---11--------11p9---11^-------
D-------------------11-9-----9h11------------------------------------------
A--------------------------------------------------------------------------
E--------------------------------------------------------------------------

E--------------------------------------------------------------------------
B--------------------------------------------------------------------------
G---------------(13)-----(13)-11p9----9-9-----11-9---11^-11^-11p9----9-9---
D----------------------------------11-----------------------------11-------
A--------------------------------------------------------------------------
E--------------------------------------------------------------------------

                                          1:31
E------------------------------------------12p9----------------------------
B--------------10p9-----------------------------12p9-10-----9-10-----9-----
G---------9h11------11p9-----11^--^--^-9-----------------------------------
D--------------------------------------------------------------------------
A--------------------------------------------------------------------------
E--------------------------------------------------------------------------
              
E--------------------------------------------------------------------------
B---10-9--------10-9-10-9------10-9----------------------------------------
G--------11-9-------------11-9------11-9-----11-9---11^-11^~~~-9---11^-----
D--------------------------------------------------------------------------
A--------------------------------------------------------------------------
E--------------------------------------------------------------------------

E--------------------------------------------------------------------------
B-------------------9-----------------10p9---------------------------------
G---11---9----9-------11p9----9-----9------11p9-----9h11p9--------16-------
D----------11--------------11---------------------------------/18----------
A--------------------------------------------------------------------------
E--------------------------------------------------------------------------

E--------------------------------------------------------------------------
B---------19^-(21)---17----------------------------------------------------
G-------------------------16h18-16---16-16h18-16-----16h18p16----9---------
D-------------------------------------------------------------18-----------
A--------------------------------------------------------------------------
E--------------------------------------------------------------------------

E--------------------------------------------------------------------------
B----------------------------10-9---9-10-9-----9-10-12-10-9-10-----9-------
G---9h11p9----9-9-----9h11p9-----------------------------------------11----
D----------11--------------------------------------------------------------
A--------------------------------------------------------------------------
E--------------------------------------------------------------------------

E--------------------------------------------------------------------------
B---9----------------------------------------------------------------------
G-------11-9-11-----9-9h11p9----------------9-9h11p9----9-9-----9-11/13----
D----------------------------7---7---7-9/11----------11--------------------
A--------------------------------------------------------------------------
E--------------------------------------------------------------------------

                                     1:59
E------------------------------------16-17p16-17p16---------------17p16----
B---12-14-12---12h14-12-12---12-12------------------17-17------------------
G--------------------------------------------------------------------------
D--------------------------------------------------------------------------
A--------------------------------------------------------------------------
E--------------------------------------------------------------------------
                                                                         
E------16h19p16-----16h17p16----16h19p16---------16h17p16----16h19p16------
B---17-----------------------17---------------------------17---------------
G--------------------------------------------------------------------------
D--------------------------------------------------------------------------
A--------------------------------------------------------------------------
E--------------------------------------------------------------------------

E---17-17-17p16------------------------------------------------------------
B-----------------17-17-1716-----16-16-16-12----------------------12-12----
G--------------------------------------------------------------------------
D--------------------------------------------------------------------------
A--------------------------------------------------------------------------
E--------------------------------------------------------------------------

E----------------------------------------------------------------12p9------
B---1210---10-10-10p9------10p9---------------10p9--------------------12---
G----------------------11p9------11-9---9-11p9------11p9---9-9-------------
D--------------------------------------------------------------------------
A--------------------------------------------------------------------------
E--------------------------------------------------------------------------

E--------------------------------------------------------------------------
B---p9---9-------------9h10-12---12--12-12---------------------------------
G----------11-9---9h11--------------------------11-11---11-9----9-----11---
D------------------------------------------------------------11------------
A--------------------------------------------------------------------------
E--------------------------------------------------------------------------

E---------------------12---------------------------------------------------
B-------12---12-12h14----14p12---------------------------------------------
G---/13------------------------13-11-9----9---11--9-----9-9----------11----
D--------------------------------------11-------------------11-9-----------
A--------------------------------------------------------------------------
E--------------------------------------------------------------------------

E---------------------12---------------------------------------------------
B-------12---12-12h14----14p12---------------------10-9--------------------
G---/13------------------------13-11-9----9---11--------9---9-9h11---------
D--------------------------------------11--------------------------11-9----
A--------------------------------------------------------------------------
E--------------------------------------------------------------------------

E----------------------------17p16-----------------------------------------
B------------17---17---17h19-------19p17---------16h17----16h17------------
G--------/16-----------------------------18p16---------18------------------
D---------------------------------------------------------------19---------
A--------------------------------------------------------------------------
E--------------------------------------------------------------------------

E----------------------------------------------17p16-----------------------
B------------17-18p16----------17---17---17h19-------19p17---------16h17---
G---16-16h18---------------/16-----------------------------18p16-----------
D--------------------------------------------------------------------------
A--------------------------------------------------------------------------
E--------------------------------------------------------------------------

E----------------------------12-----12--------12---------------------------
B------16h17-----------12-14---------------14----14p12---------------------
G---18-------------/13---------------------------------13=11-9----9-11-----
D------------19------------------------------------------------11----------
A--------------------------------------------------------------------------
E--------------------------------------------------------------------------

E--------------------------------------------12-14-16p14-16p14----12-------
B---9---9h10p9----9----------------12-----14-------------------14----------
G--------------11---11p9-----11/13-----------------------------------------
D--------------------------------------------------------------------------
A--------------------------------------------------------------------------
E--------------------------------------------------------------------------
                                                                         
E---16p14----12------------------------------------------------------------
B---------14--------14---12h14p12-12---12h14-12-----12h14-12---------------
G----------------------------------------------------------------13-11-----
D--------------------------------------------------------------------------
A--------------------------------------------------------------------------
E--------------------------------------------------------------------------
                                                                         
E--------------------------------------------------------------------------
B-------------------------------------/12---12h14-12---12h14-12------------
G---9-----9h11---9---9h11---9h11p9--------------------------------13-11----
D--------------------------------------------------------------------------
A--------------------------------------------------------------------------
E--------------------------------------------------------------------------

E--------------------------------------------------------------------------
B---------------------------------------/12---12h14---12h14p12----14-12----
G-----9-----9h11---9---9h11---9h11p9---------------------------13----------
D--------------------------------------------------------------------------
A--------------------------------------------------------------------------
E--------------------------------------------------------------------------

E-----------------------12h14p12----12-14---16-----16-----16-16p14-12-14---
B-------14----12-14--------------14----------------------------------------
G----------13--------------------------------------------------------------
D--------------------------------------------------------------------------
A--------------------------------------------------------------------------
E--------------------------------------------------------------------------

E-----------16p14p12-14-----12----12h14p12----12-14-----16-----16-----16---
B------------------------------14----------14------------------------------
G--------------------------------------------------------------------------
D--------------------------------------------------------------------------
A--------------------------------------------------------------------------
E--------------------------------------------------------------------------
                                                                         
E-----16p14-12-----14h16---16p14p12-14---12----12--------------------------
B-------------------------------------------14----14p12-----14---12h14p----
G--------------------------------------------------------------------------
D--------------------------------------------------------------------------
A--------------------------------------------------------------------------
E--------------------------------------------------------------------------

E--------------------------------------------------------------------------
B---12-14---12--------------12-14-12--------------12------------12-14-12---
G------------------13-11/13--------------13-11/13------13-11/13------------
D--------------------------------------------------------------------------
A--------------------------------------------------------------------------
E--------------------------------------------------------------------------

E--------------------12-14---16-16p14-14-12-14-16-----16/17-17-17p16-16----
B--------------12-14-------------------------------------------------------
G-----13-11/13-------------------------------------------------------------
D--------------------------------------------------------------------------
A--------------------------------------------------------------------------
E--------------------------------------------------------------------------

             [around here I'm pretty sure is at about 3:18]
E---14---16-17-17/19-19-19/21-21-19-19-17-17---16-16h17p16-16-----17-------
B--------------------------------------------------------------------------
G--------------------------------------------------------------------------
D--------------------------------------------------------------------------
A--------------------------------------------------------------------------
E--------------------------------------------------------------------------

E---17-17p16---------------------------------------------------------------
B------------21-21p19---19-19p17-17-1714---14h17p14-17---14h17p14---17-----
G--------------------------------------------------------------------------
D--------------------------------------------------------------------------
A--------------------------------------------------------------------------
E--------------------------------------------------------------------------

E--------------------------------------------------------------------------
B-----14h17p14h17/19-17---14-14p12-----------------------------------------
G----------------------------------13---13h14p13---14-1311-9------9---9----
D-------------------------------------------------------------9h11---------
A--------------------------------------------------------------------------
E--------------------------------------------------------------------------
                                                                         
E----------------------------12-14-12--------------------------------------
B----------------------12-14----------------------12-14-12-----------------
G---9------9-9---11/13--------------------9-11/13----------1311-9----------
D-----9h11-----------------------------------------------------------------
A--------------------------------------------------------------------------
E--------------------------------------------------------------------------

E--------------------------12-14-12----------------------------------------
B--------------------12-14----------------------12-14-12-------------------
G--------9-9---11/13--------------------9-11/13----------1311-9-9----------
D---9h11-------------------------------------------------------------------
A--------------------------------------------------------------------------
E--------------------------------------------------------------------------

E--------------------------------------------------------------------------
B-------9h10p9----9--------------------------------------------------------
G--9h11--------11---9p11----------9h11p9----9--------9-9h11p9------9-11----
D----------------------------9h11--------11-----9h11------------11---------
A--------------------------------------------------------------------------
E--------------------------------------------------------------------------

E--------------------------------------------------------------------------
B-------12------------------9h10p9-----------9h10p9----9-------------------
G---/13----1311-9-9---9h11--------11---9h11--------11---11p9----------9----
D-----------------------------------------------------------------9h11-----
A--------------------------------------------------------------------------
E--------------------------------------------------------------------------

E--------------------------------------------------------------------------
B-------------------------------------------9h10p9-----------9h10p9----9---
G---h11p9-----------9h11p9----9--------9h11--------11---9h11--------11-----
D---------11---9h11--------11---11p9---------------------------------------
A--------------------------------------------------------------------------
E--------------------------------------------------------------------------
                                                                         
E--------------------------------------------------------------------------
B--------------------------------------------------------9h10p9------------
G---11p9----------9h11p9---------9h11p9----9--------9h11--------11---9h----
D------------9h11--------11-9h11--------11---11p9--------------------------
A--------------------------------------------------------------------------
E--------------------------------------------------------------------------

E-----------------------------------------------------------
B------9h10p9----9------------------------------------------
G---11--------11---11p9----------9h11p9---------9h11p9----9-
D---------------------------9h11--------11-9h11--------11---
A-----------------------------------------------------------
E-----------------------------------------------------------

4:06
E--------------------------------------------
B-10/12--------------------------------------
G-11/13--11-9--------------------------------
D-------------11--9--------------------------
A-------------------11-9---11--7-------7-7---
E----------------------------------7h9-------

[E]Good old sunday [B]morning, bells are [A]ringing every[E]where.
Goin to Carol[B]ina, it [A]won't be long and I'll be there[E]    
_________________________________________
--------------------------5-7--9p7-5--
--------------------5--7--------------
-----------------2--------------------
------0--2p0-2/4----5--5--------------
-0--2---------------------------------
--------------------------------------

[B]You're my [A]blue sky, [E]you're my sunny [A]day.
[B]Lord, you know it [A]makes me high when you [E]turn your love my [A]way,
Turn your love my [F#m7]way, yeah[E]

E          A               E                      A               E
------------------------------------------------------------------------------|
------------------------------------------------------------------------------|  
-0-------0-5-------5-8-5---0---0--------0-------0-5-------5-8-5---0---0-------|    
-0-0-0h2---5-5-5h7-------7-0-0---2p0----0-0-0h2---5-5-5h7-------7-0-0---2p0---|
-0---------5---------5-5-5-0---------2--0---------5---------5-5-5-0---------2-|  
-0---------5---------------0------------0---------5---------------0-----------|
   E        D              A             F#m        E
---0--------10-------------5-------------5----------0-|
---0--0-----10----------10-5-------5-----5-------5--0-|
---0----2-0-10----10h12----5---5h7-------5---5h7----0-|
---0--------10-10----------5-5-----------5-5--------0-|
------------------------------------------------------|
------------------------------------------------------|


                                                       


Tap to rate this tab
# A B C D E F G H I J K L M N O P Q R S T U V W X Y Z