Song name
# A B C D E F G H I J K L M N O P Q R S T U V W X Y Z

Allstar Weekend - Come Down With Love tab

Tabbed By Billy Poile;
billypoile@gmail.com
for more accurate tabs!

Capo; 7th Fret (Don`t need one)
but It`s easier.

---------------------------|
-10--12----9---12--0---12--|
---9-----9---9-------9-----|
---------------------------|
---------------------------|
---------------------------|

[NOTE] If you Don`t have a guitar capo..
instead of an open note just hit the 7th fret!

---------------------------|
-10--12----9---12--7---12--|
---9-----9---9-------9-----|
---------------------------|
---------------------------|
---------------------------|

this is.. to me slightly accurate enough
for you guys :)

please rate this tab!

I never saw any tabs for this.. this was made by ear
that kind of explains why its not so .. "allstar"
hahahah
but thanks!
hope this helped..
email me for the whole song!!

-Billy Poile
Tap to rate this tab
 
# A B C D E F G H I J K L M N O P Q R S T U V W X Y Z