Song name
# A B C D E F G H I J K L M N O P Q R S T U V W X Y Z

Almendra - Mestizo tab

Mestizo - Almendra 1969

By Edelmiro Molinari.

Tabbed by Martincho Chammah
Almendra, la mejor banda nacional



INTRO RIFF

e|-------------------|
B|-------------------|
G|-------------------|   x3
D|-------------------|
A|-----5---4-2-------|
E|-0-0---0-----3-2(v)|

e|----------------|------------------| 
B|----------------|------------------|
G|----------------|------------------|   
D|----------------|------------------|
A|----------------|------------------|
E|--0--0----------|------------------|

Empieza la canción
Song starts


Em     D              Em      D
No te puedo hacer distancia,
Em     D          Em   D
ni carne bajo mi piel
Em       D            Em     D
dar vueltas sobre tu centro
Em     D       Em    D
o explotar con él.

C         G
solo me queda
Em                         C
quebrar las viejas hojas secas
         Em   D
con mis pies
    Em
bailando

C      D C    Em  D
porque soy mestizo

-Repite-
-Repeats-

No puedo acercarme al sol
para pedirte
porque el secará mi sangre
y eso no podrá ser
porque soy, porque soy mestizo

SOLO

e|----------------|----------10b12-10-7-----------| 
B|-10b12-8-10-10-8-10-8-10b12-----------10-8-10-8-|
G|----------------|-------------------------------|   
D|----------------|-------------------------------|
A|----------------|-------------------------------|
E|----------------|-------------------------------|

e|----------------|-10-12-10-12b14-12b14------------| 
B|----------------|---------------------------------|
G|-9s7------------|---------------------------------|   
D|-----5h7p5------|---------------------------------|
A|----------7-----|---------------------------------|
E|----------------|---------------------------------|


e|-17b19-17-19-------------|-------------------| 
B|-------------19-17--19-17-19-17--------------|
G|----------------|-16------------16s14----16--|   
D|----------------|---------------------17-----|
A|----------------|----------------------------|
E|----------------|----------------------------|

Note: Listen carefully to how he plays, there are certain dynamics which can not be translated
to tabs.
Nota: Escuchen bien como él toca, ya que hay ciertas dinamicas que no se pueden poner en tabs.


Voy al sol y cuando esté seco
iré como por el aire hasta vos
porque soy mestizo, mestizo, mestizo.

Band at wikipedia:
http://en.wikipedia.org/wiki/Almendra_%28band%29




e|----------------|------------------| 
B|----------------|------------------|
G|----------------|------------------|   
D|----------------|------------------|
A|----------------|------------------|
E|----------------|------------------|

Tap to rate this tab
# A B C D E F G H I J K L M N O P Q R S T U V W X Y Z