Almost There - Cant Do It tab

PLAY THIS PART CLEAN-- I KNOW BECAUSE IT'S A SONG FROM MY BAND


E--------------------------------------------------------|
B--------------------------------------------------------|
G--------------------------------------------------------|
D-------11--11---11---11---------------------------------|
A-----9---9-----9----9-----------------------------------|
E---7----7-----7----7------------------------------------|

PLAY THE PIECE ABOVE AND THEN DISTORTION COMES IN

E--------------------------------------------------------|
B--------------------------------------------------------|
G--------------------------------------------------------|
D--33--33--33--33--33--33--------------------------------|
A--33--33--33--33--33--33--------------------------------|
E--33--33--33--33--33--33--------------------------------|
Tap to rate this tab
 
# A B C D E F G H I J K L M N O P Q R S T U V W X Y Z