Song name
# A B C D E F G H I J K L M N O P Q R S T U V W X Y Z

Almost - Call Back When Im Honest tab

Help us improve GuitareTab! Take a short survey!
"Call Me Back When I'm Honest" by The Almost

-someone use this to finish the song. :]

Tuning: Drop D (it's just easier to me this way)

  Q=180
 4/4
  Gtr I
|----------------------|---------------------|
|----------------------|---------------------|
|----------------------|---------------------|
|-19p0-15p0-14p0-17p=0-|-19p0-15p0-14p0-17p0-|
|----------------------|---------------------|
|----------------------|---------------------|
|
| Gtrs II, III
|----------------------|---------------------|
|----------------------|---------------------|
|--7-7--7-7--7-7-10-10-|--9-9--9-9--9-9--9-9-|
|--7-7--7-7--7-7-10-10-|--9-9--9-9--9-9--9-9-|
|--5-5--5-5--5-5--8--8-|--7-7--7-7--7-7--7-7-|
|----------------------|---------------------|


|------------------------|-----------------------|
|------------------------|-----------------------|
|------------------------|-----------------------|
|-19p=0-15p=0-14p=0-15p0-|-14p0-15p0-14h15p14----|
|------------------------|-----------------------|
|------------------------|-----------------------|
|
|------------------------|-----------------------|
|------------------------|-----------------------|
|------------------------|-----------------------|
|-10-10-10-10-10-10-10-7-|--7-7--7-8--8--8--8-8--|
|-10-10-10-10-10-10-10-7-|--7-7--7-8--8--8--8-8--|
|-10-10-10-10-10-10-10-7-|--7-7--7-8--8--8--8-8--|


|----------------------|---------------------|
|----------------------|---------------------|
|----------------------|---------------------|
|-19p0-15p0-14p0-17p=0-|-19p0-15p0-14p0-17p0-|
|----------------------|---------------------|
|----------------------|---------------------|
|
|----------------------|---------------------|
|----------------------|---------------------|
|--7-7--7-7--7-7-10-10-|--9-9--9-9--9-9--9-9-|
|--7-7--7-7--7-7-10-10-|--9-9--9-9--9-9--9-9-|
|--5-5--5-5--5-5--8--8-|--7-7--7-7--7-7--7-7-|
|----------------------|---------------------|


|------------------------|----------------------||
|------------------------|----------------------||
|------------------------|----------------------||
|-19p=0-15p=0-14p=0-15p0-|-14p0-15p0-14h15p14---||
|------------------------|----------------------||
|------------------------|----------------------||
|
|------------------------|----------------------||
|------------------------|----------------------||
|------------------------|----------------------||
|-10-10-10-10-10-10-10-7-|--7-7--7-8--8--8--8-8-||
|-10-10-10-10-10-10-10-7-|--7-7--7-8--8--8--8-8-||
|-10-10-10-10-10-10-10-7-|--7-7--7-8--8--8--8-8-||


|-----------|--------|
|-----------|--------|
|-----------|--------|
|-12--------|-12-----|
|-----------|--------|
|-----------|--------|
|
|-----------|--------|
|-----------|--------|
|--7--------|-(7)----|
|--7--------|-(7)----|
|--5--------|-(5)----|
|-----------|--------|



***************************************************************************************
* Generated using Power Tab Editor by Brad Larsen - http://powertab.guitarnetwork.org *
***************************************************************************************
Related for Call Back When Im Honest tab