Song name
# A B C D E F G H I J K L M N O P Q R S T U V W X Y Z

Almost - Awful Direction tab

This is what I picked up from watching a video on YouTube of the concert for TWLOHA. 
you enjoy it! It sounds right, and please rate.

Awful Direction
The Almost
No Gift To Bring EP

Standard tuning (EADGBE)

Intro/Verse
e|----------------------------------------|
B|-1---1-1-1-1--1--1---1-1-1-1------------|
G|----------------------------------------|
D|-2---2-0-2-3--3--2---2-0-2-3------------|
A|-3---3-3-3-3--3--3---3-3-3-3------------|
E|----------------------------------------|

Pre-Chorus (..so alone) *listen for change of chord
e|----------------------------------------|
B|--1-1--1-1-1----------------------------|
G|----------------------------------------|
D|----------------------------------------|
A|--2-2--2-2-2----------------------------|
E|--3-3--3-3-3----------------------------|

Chorus
e|----------------------------------------|
B|-1-1-1--1-1-1-1--1-1-1------------------|
G|-2-2-2----------------------------------|
D|-2-2-2--3-3-2-2-------------------------|
A|--------3-3-3-3--2-2-2------------------|
E|-----------------3-3-3------------------|

Post-Chorus
e|----------------------------------------|
B|--1-1-1-1--1-1-1-1--1-1-1-1--1-1-1-1----|
G|--2-2-2-2-----------2-2-2-2-------------|
D|--2-2-2-2-----------2-2-2-2-------------|
A|-----------2-2-2-2-----------2-2-2-2----|
E|-----------3-3-3-3-----------3-3-3-3----|

Bridge (very unsure of this part)
e|----------------------------------------------------|
B|-1-1-1-1--1-1-1-1-1-1-1-1-1-1--1-1-1-1-1--1-1-1-1-1-|
G|-2-2-2-2----------------------------------2-2-2-----| Continue on with
D|-2-2-2-2--3-3-3-3-3-2-2-2-2-2-------------2-2-2-----| last chord
A|----------3-3-3-3-3-3-3-3-3-3--2-2-2-2-2--------2-2-|
E|-------------------------------3-3-3-3-3--------3-3-|

e|----------------------------------------|
B|-1--1-1-1-1--1--1-1-1-1----1------------|
G|----------------------------------------| Last Chord accented
D|-2--2-0-2-3--2--2-0-2-3----3------------|
A|-3--3-3-3-3--3--3-3-3-3----3------------|
E|----------------------------------------|

Order
Intro
Verse
Pre-Chorus
Chorus
Post-Chorus
Verse
Pre-Chorus
Chorus
Bridge
Chorus
Post-Chorus

Hope you enjoyed it!
Tap to rate this tab
 
# A B C D E F G H I J K L M N O P Q R S T U V W X Y Z