Guitaretab - guitar tabs
Song name
# A B C D E F G H I J K L M N O P Q R S T U V W X Y Z

Aloha From Hell - Dont Gimme That tab

Title: Don't Gimme That
Artist: Aloha From Hell
Tabbed by: Fastmaniac
Key: D-minor

Standard Tuning

Intro

1st part no Guitar, Piano plays:

Dm, F, Bb, F, Am    x4

2nd part:

e|------------------|-----------------|-----------------|-----------------|
B|------------------|-----------------|-----------------|-----------------|
G|-7~~~~~~~~9~~~~~~~|-10~~~~~~10~~9~~~|-7~~~~~~~9~~~~~~~|-10~~~~~~~10~~~~~|
D|------------------|-----------------|-----------------|-----------------|
A|------------------|-----------------|-----------------|-----------------|
E|------------------|-----------------|-----------------|-----------------|

Prechorus

e|------------------|-----------------|-----------------|-----------------|
B|------------------|-----------------|-----------------|-----------------|
G|------------------|-----------------|-7-7-7-7-7-7-7-7-|-----------------|
D|--5-5-5-5-5-5-5-5-|-7-7-7-7-7-7-7-7-|-7-7-7-7-7-7-7-7-|-3-3-3-3-3-3-3-3-|
A|--5-5-5-5-5-5-5-5-|-7-7-7-7-7-7-7-7-|-5-5-5-5-5-5-5-5-|-3-3-3-3-3-3-3-3-|
E|--3-3-3-3-3-3-3-3-|-5-5-5-5-5-5-5-5-|-----------------|-1-1-1-1-1-1-1-1-|


            You were the one......              You were the one.......
[ Tab from: http://www.guitaretab.com/a/aloha-from-hell/175133.html ]
e|------------------|-----------------|
B|------------------|-----------------|
G|------------------|-----------------|
D|--8-8-8-8-8-8-8-8-|-7-7-7-7-7-------|
A|--8-8-8-8-8-8-8-8-|-7-7-7-7-7-------|
E|--6-6-6-6-6-6-6-6-|-5-5-5-5-5-------|

            Now, I'm Your......     Don't Gimme That

Chorus

e|------------------|------------------|
B|------------------|------------------|
G|-7-7--------------|-3-3----------2-2-|
D|-7-7-xxxx-3-3-xxxx|-3-3-xxxx-3-3-2-2-|   x4
A|-5-5-xxxx-3-3-xxxx|-1-1-xxxx-3-3-0-0-|
E|-----xxxx-1-1-xxxx|-----xxxx-1-1-----|

       Ahah     Ahah      Ahah  Don't Gimme That

2nd Verse


e|------------------|-----------------|-----------------|-----------------|
B|------------------|-----------------|-----------------|-----------------|
G|------------------|-10~~~~~~10~~9~~~|-7~~~~~~~9~~~~~~~|-10~~~~~~~10~~~~~|
D|------------------|-----------------|-----------------|-----------------|
A|------------------|-----------------|-----------------|-----------------|
E|------------------|-----------------|-----------------|-----------------|

                       Well, I can't believe.............


Prechorus


Chorus x4


Prechorus during Solo (Maybe I'll tab the Solo in the next time)


3rd Verse (No Guitar)


Chorus x6

End


Have Fun playing ;-)

Related for Dont Gimme That tab