Guitaretab - guitar tabs
Song name
# A B C D E F G H I J K L M N O P Q R S T U V W X Y Z

Aloha From Hell - Catch Me If You Can tab

Intro/Chorus:

e-------------------------------------------------------------------------|
b-------------------------------------------------------------------------|
G---5-5-5-5---------------------------------------------------------------|
D---5-5-5-5---6-6-6-6---1-1-1-1---3-3-3-3---------------------------------|
A---3-3-3-3---6-6-6-6---1-1-1-1---3-3-3-3---------------------------------|
D-------------6-6-6-6---1-1-1-1---3-3-3-3---------------------------------|

Verse:
[ Tab from: http://www.guitaretab.com/a/aloha-from-hell/182420.html ]
e---------------------------------------------------------------------------|
b---------------------------------------------------------------------------|
G---5-5-5---8-/-10-----------10-8-------------------------------------------|
D---5-5-5---8-/-10---8-8-8---10-8-------------------------------------------|
A---3-3-3---6-/-8----8-8-8---8--6-------------------------------------------|
D--------------------8-8-8--------------------------------------------------|

Bridge:

e----------------------------------------|
b----------------------------------------|
G----------------------------------------|
D---5---------6-6-6-6-6-6---3-3-3-3-3-3--|
A---5---------6-6-6-6-6-6---3-3-3-3-3-3--|
D---5---------6-6-6-6-6-6---3-3-3-3-3-3--|
Related for Catch Me If You Can tab
Advertisement will be closed in 10 seconds