Song name
# A B C D E F G H I J K L M N O P Q R S T U V W X Y Z

Aloha From Hell - Can You Hear Me Boys tab

Can you hear me boys - Aloha from hell

e-mail: avrill_xx@yahoo.com

INTRO
guitar 1
e|-----------------------------------------------------|
B|-----------------------------------------------------|
G|-6-6--6--6--6-6-6--9-9-9--6-6--6--6--6-6-6--11-11-9--|
D|-x-x--x--x--x-x-x--x-x-x--x-x--x--x--x-x-x--x--x--x--| x2
A|-4-4--4--4--4-4-4--7-7-7--4-4--4--4--4-4-4--9--9--7--|
E|-----------------------------------------------------|

part 2
guitar 1
e|-----------------------------------------------------|
B|-----------------------------------------------------|
G|-6-6--6--6--6-6-6--9-9-9--6-6--6--6--6-6-6--11-11-9--|
D|-x-x--x--x--x-x-x--x-x-x--x-x--x--x--x-x-x--x--x--x--| x2
A|-4-4--4--4--4-4-4--7-7-7--4-4--4--4--4-4-4--9--9--7--|
E|-----------------------------------------------------|

guitar 2 
e|-----------------------------------|
B|-----------------------------------|
G|-----------------6666666--4444444--|
D|-77777777777777--6666666--4444444--|
A|-77777777777777--4444444--2222222--|
E|-55555555555555--------------------|

e|-----------------------------------|
B|-----------------------------------|
G|-----------------6666666--6666666--|
D|-77777777777777--6666666--6666666--|
A|-77777777777777--4444444--4444444--|
E|-55555555555555--------------------|


VERSE

bass

all of my girls...
guitar 1
e|-----------------------|
B|-----------------------|
G|-6-6-6-6-6-6-6--4-4/6--|
D|-x-x-x-x-x-x-x--x-x-x--|  x4
A|-4-4-4-4-4-4-4--2-2/4--|
E|-----------------------|


CHORUS
e|-----------------------------------|
B|-----------------------------------|
G|-----------------6666666--4444444--|
D|-77777777777777--6666666--4444444--|
A|-77777777777777--4444444--2222222--|
E|-55555555555555--------------------|

e|-----------------------------------|
B|-----------------------------------|
G|-----------------6666666-----------|
D|-77777777777777--6666666--4444444--|
A|-77777777777777--4444444--4444444--|
E|-55555555555555-----------2222222--|



e|-----------------------------------|
B|-----------------------------------|
G|-----------------6666666--4444444--|
D|-77777777777777--6666666--4444444--|
A|-77777777777777--4444444--2222222--|
E|-55555555555555--------------------|

e|-----------------------------------|
B|-----------------------------------|
G|-----------------6666666-----------|
D|-77777777777777--6666666--4444444--|
A|-77777777777777--4444444--4444444--|
E|-55555555555555-----------2222222--|


POST-CHORUS

e|-----------------------------------------------------|
B|-----------------------------------------------------|
G|-6-6--6--6--6-6-6--9-9-9--6-6--6--6--6-6-6--11-11-9--|
D|-x-x--x--x--x-x-x--x-x-x--x-x--x--x--x-x-x--x--x--x--| x2
A|-4-4--4--4--4-4-4--7-7-7--4-4--4--4--4-4-4--9--9--7--|
E|-----------------------------------------------------|


VERSE

only bass 

then:

all of you here...
e|---------------------------------------------------|
B|---------------------------------------------------|
G|-6-6--6--6--6-6-6--6-6-6--6-6--6--6--6-6-6--9-9-9--|
D|-x-x--x--x--x-x-x--x-x-x--x-x--x--x--x-x-x--x-x-x--| x2
A|-4-4--4--4--4-4-4--4-4-4--4-4--4--4--4-4-4--7-7-7--|
E|---------------------------------------------------|


CHORUS
e|-----------------------------------|
B|-----------------------------------|
G|-----------------6666666--4444444--|
D|-77777777777777--6666666--4444444--|
A|-77777777777777--4444444--2222222--|
E|-55555555555555--------------------|

e|-----------------------------------|
B|-----------------------------------|
G|-----------------6666666-----------|
D|-77777777777777--6666666--4444444--|
A|-77777777777777--4444444--4444444--|
E|-55555555555555-----------2222222--|



e|-----------------------------------|
B|-----------------------------------|
G|-----------------6666666--4444444--|
D|-77777777777777--6666666--4444444--|
A|-77777777777777--4444444--2222222--|
E|-55555555555555--------------------|

e|-----------------------------------|
B|-----------------------------------|
G|-----------------6666666-----------|
D|-77777777777777--6666666--4444444--|
A|-77777777777777--4444444--4444444--|
E|-55555555555555-----------2222222--|

BRIDGE
(no guitar)

then: 
e|-----------------------------|
B|-----------------------------|
G|--6-6--6--6--6-6-6--11-11-9--|
D|--x-x--x--x--x-x-x--x--x--x--|
A|--4-4--4--4--4-4-4--9--9--7--|
E|-----------------------------|

CHORUS
can you hear me boys...
e|-----------------------------------|
B|-----------------------------------|
G|-----------------6666666--4444444--|
D|-77777777777777--6666666--4444444--|
A|-77777777777777--4444444--2222222--|
E|-55555555555555--------------------|

e|-----------------------------------|
B|-----------------------------------|
G|-----------------6666666-----------|
D|-77777777777777--6666666--4444444--|
A|-77777777777777--4444444--4444444--|
E|-55555555555555-----------2222222--|


guitar 1
e|-----------------------------------|
B|-----------------------------------|
G|-----------------6666666--4444444--|
D|-77777777777777--6666666--4444444--|
A|-77777777777777--4444444--2222222--|
E|-55555555555555--------------------|

guitar 2
e|-----------------------------------|
B|-----------------------------------|
G|-----------------------------------|
D|--9--8-----------6--4--------------|
A|--------9--7------------6--7-------|
E|-----------------------------------|

guitar 1
e|-----------------------------------|
B|-----------------------------------|
G|-----------------6666666-----------|
D|-77777777777777--6666666--4444444--|
A|-77777777777777--4444444--4444444--|
E|-55555555555555-----------2222222--|

guitar 2
e|-----------------------------------|
B|-----------------------------------|
G|-----------------------------------|
D|--9--8-----------6-----------------|
A|--------9--7--------7----6--7------|
E|-----------------------------------|

guitar 1
e|-----------------------------------|
B|-----------------------------------|
G|-----------------6666666--4444444--|
D|-77777777777777--6666666--4444444--|
A|-77777777777777--4444444--2222222--|
E|-55555555555555--------------------|

guitar 2
e|-----------------------------------|
B|-----------------------------------|
G|-----------------------------------|
D|--9--8-----------6--4--------------|
A|--------9--7------------6--7-------|
E|-----------------------------------|

guitar 1
e|-----------------------------------|
B|-----------------------------------|
G|-----------------6666666-----------|
D|-77777777777777--6666666--4444444--|
A|-77777777777777--4444444--4444444--|
E|-55555555555555-----------2222222--|

guitar 2
e|-----------------------------------|
B|-----------------------------------|
G|-----------------------------------|
D|--9--8-----------6-----------------|
A|--------9--7--------7----6--7------|
E|-----------------------------------|


OUTRO
e|-----------------------------------------------------|
B|-----------------------------------------------------|
G|-6-6--6--6--6-6-6--9-9-9--6-6--6--6--6-6-6--11-11-9--|
D|-x-x--x--x--x-x-x--x-x-x--x-x--x--x--x-x-x--x--x--x--| x2
A|-4-4--4--4--4-4-4--7-7-7--4-4--4--4--4-4-4--9--9--7--|
E|-----------------------------------------------------|
Tap to rate this tab
# A B C D E F G H I J K L M N O P Q R S T U V W X Y Z