Song name
# A B C D E F G H I J K L M N O P Q R S T U V W X Y Z

Aloha - Brace Your Face tab

This is song Brace Your Face by Aloha. Its off the cd Some Echos.(www.musicofaloha.com)

The timing is a little weird at parts so you have to listen to the song to get it all 
at the right times.


Capo on 3rd fret.

this is the intro and what he plays during the verse.


e---0--2h3/5-----5--------3p2---0---2h3/5-----5--------3p2--------|
b-----------------------------------------------------------------|
g-----------------------------------------------------------------|
d-----------------------------------------------------------------|
a---2------------5--------------2-------------5-------------------|
e-----------------------------------------------------------------|

I'm not certin on this part but this is what it looks like in concert.

e--000000---3p0---0h2----0000000---3p0---0h2----------------------|
b-----------------------------------------------------------------|
g-----------------------------------------------------------------|
d-----------------0h2--------------------0h2----------------------|
a--2-------0-------------2---------0------------------------------|
e-----------------------------------------------------------------|
   "I've got a feeling it will never be"

after this it goes back to the verse the first time then it goes to after the secound

e--o-------0-0----0-------0-0---0-----0-0---0-----------------------|
b--1-------1-1----1-------1-1---1-----1-1---1-----------------------|
g--2-------0-0----2-------0-0---2-----0-0---2-----------------------|
d--3-------2-2-0--2-------2-2-0-3-----2-2-0-2-----------------------|
a--3-------2-2-0--0-------2-2-0-3-----2-2-0-0-----------------------|
e-------------------------------------------------------------------|
   "Words from under the thunder of the years first storm"

that gets you through about the first four minutes but i don't know the ending if anyone 
it they should add it.
Tap to rate this tab
# A B C D E F G H I J K L M N O P Q R S T U V W X Y Z