Song name
# A B C D E F G H I J K L M N O P Q R S T U V W X Y Z

Alon - Pusong Bato tab

Band/Artist: Alon
Song: Pusong Bato
Originally composed by: Renee Dela Rosa

Tabs submitted by: Lester Talisic 

Intro:
   G                A                 G                  A               
e|-----3/4-----3-------------------0-----------3/4-----3-------------0-----2-----3---|
B|-----3/4--3~---3---------2/3--2~---2---------3/4--3~---3-------2/3---2/3---2/3-----|
G|---0------0~-----0-----2-2/3--2~-----2-----0------0~-----0-----2/3---2/3---2/3-----|
D|-----------------------------------------------------------------------------------|
A|---------------------0---------------------------------------0---------------------|
E|-3---------------------------------------3-----------------------------------------|

Verse1:
e|-----------2-----------------3------------------|
B|-------3-------3---------3-------3--------------|
G|-----2-------2---------0-------0----------------|
D|---0-----0-0-----0------------------------------|
A|------------------------------------------------|
E|--------------------3------3-3-----3------------|
    D              G
Nang ika’y ibigin ko
e|------------0-----------------2-----------------|
B|--------2-------2---------3-------3-------------|
G|------2-------2---------2-------2---------------| 
D|----------------------0-----0-0-----0-----------|
A|----0-----0-0-----0-----------------------------|
E|------------------------------------------------|
      A              D
Mundo ko’y biglang nagbago
e|-----------2-----------------3------------------|
B|-------3-------3---------3-------3--------------|
G|-----2-------2---------0-------0----------------|
D|---0-----0-0-----0------------------------------|
A|------------------------------------------------|
E|--------------------3------3-3-----3------------|
    D              G
Akala ko ika’y langit
e|------------0-----------------2-----------------|
B|--------2-------2---------3-------3-------------|
G|------2-------2---------2-------2---------------| 
D|----------------------0-----0-0-----0-----------|
A|----0-----0-0-----0-----------------------------|
E|------------------------------------------------|
      A              D
Yun pala’y sakit ng ulo


Verse2:
e|-----------2-----------------3------------------|
B|-------3-------3---------3-------3--------------|
G|-----2-------2---------0-------0----------------|
D|---0-----0-0-----0------------------------------|
A|------------------------------------------------|
E|--------------------3------3-3-----3------------|
    D             G
Sabi mo  noon  sakin
e|-------------0-----------------2----------------|
B|---------2-------2---------3-------3------------|
G|-------2-------2---------2-------2--------------| 
D|-----------------------0-----0-0-----0----------|
A|-----0-----0-0-----0----------------------------|
E|------------------------------------------------|
      A              D
Kailan ma’y  di  magbabago
e|-----------2-----------------3------------------|
B|-------3-------3---------3-------3--------------|
G|-----2-------2---------0-------0----------------|
D|---0-----0-0-----0------------------------------|
A|------------------------------------------------|
E|--------------------3------3-3-----3------------|
    D              G
Naniwala  naman  sayo
e|-------------0-----------------2------------------0-------|
B|---------2-------2---------3-------3---------2--------2---|
G|-------2-------2---------2-------2---------2--------2-----| 
D|-----------------------0-----0-0-----0--------------------|
A|-----0-----0-0-----0---------------------0-----0--0-----0-|
E|----------------------------------------------------------|
      A               D                A
Ba’t  ngayo’y  iniwan  mo

Chorus:
e|------2----------2-------------3----------3-----|
B|------3----------3-------------3----------3-----|
G|---2--2--2----2--2----------0--0--0----0--0-----| 
D|-0-------0--0------0----------------------------|
A|------------------------------------------------|
E|--------------------------3-------3--3------3---|
  D                      G
  Di mo alam dahil sayo ako’y di makakain
e|------0----------0----------2----------2---|
B|------2----------2----------3----------3---|
G|---2--2--2----2--2-------2--2--2----2--2---| 
D|-----------------------0-------0--0------0-|
A|-0-------0--0------0-----------------------|
E|-------------------------------------------|
  A                      D
  Di rin makatulog buhat ng iyong lukohin
e|------2----------2-------------3----------3-----|
B|------3----------3-------------3----------3-----|
G|---2--2--2----2--2----------0--0--0----0--0-----| 
D|-0-------0--0------0----------------------------|
A|------------------------------------------------|
E|--------------------------3-------3--3------3---|
  D                      G
  Kung ako’y muling iibig sanay di maging katulad mo
e|------0----------0-----------2----------2---------0----------0-----|
B|------2----------2-----------3----------3---------2----------2-----|
G|---2--2--2----2--2--------2--2--2----2--2------2--2--2----2--2-----| 
D|------------------------0-------0--0------0------------------------|
A|-0-------0--0------0-------------------------0-------0--0-------0--|
E|-------------------------------------------------------------------|
   A                      D                    A
  Tulad mo na may pusong bato

Verse3:
     D                G
Kahit sa’n ka man ngayon
       A           D
Dinggin mo itong awitin
      D                 G
Baka sakaling ika’y magising
      A               D
Ang matigas mong damdamin


Chorus:
D                      G
Di mo alam dahil sayo ako’y di makakain
A                      D
Di rin makatulog buhat ng iyong lukohin
D                      G
Kung ako’y muling iibig sanay di maging katulad mo
A                       D      A
Tulad mo na may pusong bato

Adlib: D-G-A-D-
       D-G-A-D-A-;

Chorus:
D                      G
Di mo alam dahil sayo ako’y di makakain
A                      D
Di rin makatulog buhat ng iyong lukohin
D                      G
Kung ako’y muling iibig sanay di maging katulad mo
A                       D      
Tulad mo na may pusong bato

D                      G
Di mo alam dahil sayo ako’y di makakain
A                      D
Di rin makatulog buhat ng iyong lukohin
D                      G
Kung ako’y muling iibig sanay di maging katulad mo
A                       D    
Tulad mo na may pusong bato
A                       D   
Tulad mo na may pusong bato
A                       D  
Tulad mo na may pusong bato...


Chords used:
G 320033
A x02220
D xx0232

Guitar Legend:
/ slide up
~ let it ring
Tap to rate this tab
# A B C D E F G H I J K L M N O P Q R S T U V W X Y Z