Song name
# A B C D E F G H I J K L M N O P Q R S T U V W X Y Z

Alon - Pusong Bato tab

Song: Pusong Bato
Artist: "Alon"
Ear Tabbed by: Neil Angelo A. Angel
Part: Solo 

not 100% accurate pero sak2-sak2 din ung tono..

----------------------------------------------------------------------------
Standard Tuning

Legend: 
/ = slide
h = hammer-on
p = pull-off
~ = vibrato

e|---3/5~--3-5--5/7-5-3-----------------------------------------|
B|-------------------------2h3p2-------3/5--5h7p5--3--2h3p2-----|
G|----------------------4~--------4-2-----------------------4-2-|
D|--------------------------------------------------------------|
A|--------------------------------------------------------------|
E|--------------------------------------------------------------|
(continued)
e|---3/5~--3-5--5/7-5-3-----------------------------------------|
B|---------------------------2-3/5~--5h7p5-3~--3-5-7/9~~--------|
G|----------------------4~--------------------------------------|
D|--------------------------------------------------------------|
A|--------------------------------------------------------------|
E|--------------------------------------------------------------|
Tap to rate this tab
# A B C D E F G H I J K L M N O P Q R S T U V W X Y Z