Song name
# A B C D E F G H I J K L M N O P Q R S T U V W X Y Z

Alove For Enemies - The Resistnace tab

Artist: Alove For Enemies
Song: The Resistance


 --->  2ND GUITAR!  <----

h: Hammer on
.: Palm Mute
~: ring out


Drop C tuning

Intro
|---------------|-----|
|---------------|-----|
|---------------|-----|
|---------------|-----|  x5
|-6h-5-3-6h-5-3-|-0~--|
|-6h-5-3-6h-5-3-|-0~--|


|-----------------------------------|  |---------------------------------|
|-----------------------------------|  |---------------------------------|
|-----------------------------------|  |---------------------------------|
|---------------------------------6-|x3|---------------------------------|x1
|-000-000-000-000-000-000-000-000-6-|  |-000-000-000-000-000-000-000-000-|
|-000-000-000-000-000-000-000-000-6-|  |-000-000-000-000-000-000-000-000-|
  ... ... ... ... ... ... ... ...        ... ... ... ... ... ... ... ...


|----------------------|	
|----------------------|	
|----------------------|	
|----------------------|x4  
|-000--0--00--00--00---|	
|-000--0--00--00--00---|	
  ..      .   .   .               

|-----------------------------------------------------------------|
|-----------------------------------------------------------------|
|-----------------------------------------------------------------|  
|-----------------------------------------------------------------|x2
|-000-000-000-000-000-000-000-000-111-111-111-111-111-111-111-111-|
|-000-000-000-000-000-000-000-000-111-111-111-111-111-111-111-111-|
  ... ... ... ... ... ... ... ... ... ... ... ... ... ... ... ...

|------|	       |--------------------------------|---------|
|------|	       |--------------------------------|---------|
|------|	       |--------------------------------|---------|
|------| x16    |-0~--0~--0~--0~--0~--0~--0~--0~-|---------|
|----5-|	       |-0~--0~--0~--0~--0~--0~--0~--0~-|-0h-STOP-|
|-000--|	       |-0~--0~--0~--0~--0~--0~--0~--0~-|-0h-STOP-|
  ...

Breakdown
|---------------------|		|-----------------------|	
|---------------------|		|-----------------------|
|---------------------|		|-----------------------|
|---------------------| x4	         |-----------------------| x2
|-00000000---000--000-|		|-00000000~--000~--000~-|
|-00000000---000--000-|		|-00000000~--000~--000~-|
  ........   ...  ...		  .......    ..    ..

|---------------------|
|---------------------|		
|---------------------|		
|---------------------| x2	
|-00000000---000--000-|		
|-00000000---000--000-|		
  ........   ...  ...	

|-----------------------------------|	|---------------------------------|
|-----------------------------------|	|---------------------------------|
|-----------------------------------|	|---------------------------------|
|-----------------------------------|	|---------------------------------|
|---------------------------------6-|x3       |---------------------------------|
|-000-000-000-000-000-000-000-000-6-|	|-000-000-000-000-000-000-000-000-|
|-000-000-000-000-000-000-000-000-6-|	|-000-000-000-000-000-000-000-000-|
  ... ... ... ... ... ... ... ...         ... ... ... ... ... ... ... ...

|----------------------|  |----------------------------||------------------|
|----------------------|  |----------------------------||------------------|
|----------------------|  |----------------------------||------------------|
|----------------------|x4|-0h--0h--0h--0h--0h--0h--0h-||------------------|
|-000--0--00--00--00---|  |-0h--0h--0h--0h--0h--0h--0h-||-5- ->2:17 to2:29!|
|-000--0--00--00--00---|  |-0h--0h--0h--0h--0h--0h--0h-||------------------|
  ..      .   .   .              

Breakdownriff in the Background!	
|---------------------|	 |-------------| |--------------------|	 
|---------------------|	 |-------------| |--------------------|	 
|---------------------|	 |-------------| |--------------------|	 
|---------------------|x4   |-0-0-0-0-0-0-| |00000000---000--000-|x2
|-00000000---000--000-|	 |-0-0-0-0-0-0-| |00000000---000--000-|	 	
|-00000000---000--000-|	 |-0-0-0-0-0-0-| |00000000---000--000-|	 	
  ........   ...  ...                     ........   ...  ...
  
|----------------------|	
|----------------------|	
|----------------------|	
|----------------------| x2 	
|-00000000~--000~-000~-|	
|-00000000~--000~-000~-|	
  .......    ..   ..	          

|-----------|
|-----------|
|-----------|
|-00000000h-|
|-00000000h-|
|-00000000h-|
  ........

END

It should be right, but if you have some questions -> el_manz@hotmail.com
Tap to rate this tab
# A B C D E F G H I J K L M N O P Q R S T U V W X Y Z