Song name
# A B C D E F G H I J K L M N O P Q R S T U V W X Y Z

Alove For Enemies - Smoke Screen tab

THIS IS MY FIRST TAB!! DO NOT HATE ME FOR HAVING ERRORS!! I love this song/band so i 
to make an intro tab. Fairly easy intro to play...
PLEASE NOTE: I will be posting the whole song in time so be patient! I have work to do 
Also if you find this tab confusing please comment and I will make it simpler.

D|--------------------------------------------------|
A|--------------------------------------------------|
F|----------7--------------------7---7-7------------|
C|--3-2-5-0-x------------3-2-5-0-x---x-x--3-2-5-0---|
G|--3-2-5-0-5------------3-2-5-0-5---5-4--3-2-5-0---|
C|--3-2-5-0--------------3-2-5-0----------3-2-5-0---|

D|--------------------------------------------------|
A|--------------------------------------------------|
F|--7------10---9-----6h7------14---12---15----14\\\|  Slide Down
C|--x-*16--x-*8-x-*8--x-x-*16--x-*3-x-*4-x-*3--x\\\\|
G|--5------8----7-----4h5------12---10---13----12\\\|
C|--------------------------------------------------|


Sorry its kinda short and not detailed but I will return to it later. Leave comments and 
if you think something is wrong.
Tap to rate this tab
# A B C D E F G H I J K L M N O P Q R S T U V W X Y Z