Song name
# A B C D E F G H I J K L M N O P Q R S T U V W X Y Z

Alove For Enemies - Ec-10 tab

Help us improve GuitareTab! Take a short survey!
ALOVE FOR ENEMIES
EC-10
Resistance

INTRO(0:00 - 0:35)
BOTH GUITARS
D--------------------------------------------------|
A--------------------------------------------------|
F--------------------------------------------------|
C---0000-0000-00-----------------------------------|
G---0000-0000-00-----------------------------------|
C---0000-0000-00-----------------------------------|
- THE INTRO GETS LOUDER EACH TIME U PLAY IT

1ST GUITAR REPEATS INTRO (0:35 - 1:10)

2ND GUITAR(0:35 - 1:56)
D--------------------------------------------------|
A--------------------------------------------------|
F----14------13------10----------------------------|
C----X--X16--X--X16--X--X32------------------------|
G----12------11------8-----------------------------|
C--------------------------------------------------|

BOTH GUITARS(1:56 -2:08)
D--------------------------------------------------|
A--------------------------------------------------|
F--------------------------------------------------|
C---0000-0000-00-----------------------------------|
G---0000-0000-00-----------------------------------|
C---0000-0000-00-----------------------------------|

1ST GUITAR CONTINUES (1:56 - 2:20)

2ND GUITAR(2:08 -3:30)
D--------------------------------------------------|
A--------------------------------------------------|
F----14------13------10----------------------------|
C----X--X16--X--X16--X--X32------------------------|
G----12------11------8-----------------------------|
C--------------------------------------------------|
- SLOWLY DECREASE THE SPEED WHEN YOUR PLAYING

-HOLD OUT--10-~ AT 3:30
         --X--~
         --8--~
Related for Ec-10 tab