Guitaretab - guitar tabs
Song name
# A B C D E F G H I J K L M N O P Q R S T U V W X Y Z

Alove For Enemies - Tread On My Dreams tab

Song: Tread on my Dreams
Artist: Alove for Enemies 
Album: Resistance 

This tab is by ear, So it may not be perfect.

Tuning: Drop C (CGCFAD)

Intro (0:00 - 0:24)
D|-----------------------------------------|
A|-----------------------------------------|
F|-----------------------------------------|
C|-----0-00--0-00--0-00--0-00--0-00--------|
G|-----0-00--0-00--0-00--0-00--0-00--------| x4
C|-----0-00--0-00--0-00--0-00--0-00--------|
       . ..  . ..  . ..  . ..  . ..

Verse (0:25 - 0:46)
D|-----------------------------------------|
A|-----------------------------------------|
F|-------10-9--7-------------------10-9--12|
C|-------x--x--x-------------------x--x--x-| x3
G|-------8--7--5-------------------8--7--10|
C|--0-00-----------0-00-0-0-0-0-00---------|
    . ..           . .. . . . . ..
[ Tab from: http://www.guitaretab.com/a/alove-for-enemies/99156.html ]
Chorus (1:20)
D|-------------------------------------------|
A|-------------------------------------------|
F|--10-10-10---14-14-14-14-------------------|
C|--x--x--x----x--x--x--x--------------------| x2
G|--8--8--8----12-12-12-12-------------------|
C|-------------------------------------------|

Outro (2:55)
D|-----------------------------------------------|
A|-----------------------------------------------|
F|----------------------7----------------------7-|
C|----------------------x----------------------x-| x5
G|--0-00-0-00-0-00-0-00-5--0-00-0-00-0-00-0-00-5-|
C|--0-00-0-00-0-00-0-00----0-00-0-00-0-00-0-00---|
    . .. . .. . .. . ..    . .. . .. . .. . ..

End on This
D|--------|
A|--------|
F|--------|
C|-8------|
G|-8------|
C|-8------|

There it is, There is another Guitar part in this song, As soon as I figure it out I will add it.
Related for Tread On My Dreams tab
×
Tread On My Dreams