Alpha Rev - New Morning tab

-----------------------------------------------------------------------------
			     New Morning - Alpha Rev
-----------------------------------------------------------------------------
Tabbed by: danielminter

Tuning: Standard

This is my first tab but all the other tabs seemed somewhat wrong. So i took action.
Song is played with capo on the 1st however there is an acoustic version that is played without.

Entire tab is relative to the capo.


Intro
E---------------------------------------------------------------------------|
B---------------------------------------------------------------------------|
G--1-1-1-1-1-1--2-2-/4-4-4-4-4-4--2-2---------------------------------------|
D--2-2-2-2-2-2--4-4-/6-6-6-6-6-6--2-2-----x2--------------------------------|
A--2-2-2-2-2-2--4-4-/6-6-6-6-6-6--------------------------------------------|
E---------------------------------------------------------------------------|

Verse 1
E---------------------------------------------------------------------------|
B---------------------------------------------------------------------------|
G--1-1-1-1-1-1--2-2-/4-4-4-4-4-4--2-2---------------------------------------|
D--2-2-2-2-2-2--4-4-/6-6-6-6-6-6--2-2-----x4--------------------------------|
A--2-2-2-2-2-2--4-4-/6-6-6-6-6-6--------------------------------------------|
E---------------------------------------------------------------------------|

Verse 2
E---------------------------------------------------------------------------|
B---------------------------------------------------------------------------|
G--1-1-1-1-1-1--2-2-/4-4-4-4-4-4--2-2---------------------------------------|
D--2-2-2-2-2-2--4-4-/6-6-6-6-6-6--2-2-----x4--------------------------------|
A--2-2-2-2-2-2--4-4-/6-6-6-6-6-6--------------------------------------------|
E---------------------------------------------------------------------------|

Chorus
E---------------------------------------------------------------------------|
B--2-2-2-2-2-2--------------------------------------------------------------|
G--2-2-2-2-2-2--4--6-6-6-6-6-6-6-6--4-4-4-4-4-4-4-4--1-1-1-1-1-1-1-1--------|
D--2-2-2-2-2-2--4--6-6-6-6-6-6-6-6--4-4-4-4-4-4-4-4--2-2-2-2-2-2-2-2--------|
A---------------2--4-4-4-4-4-4-4-4--2-2-2-2-2-2-2-2--2-2-2-2-2-2-2-2--------|
E---------------------------------------------------------------------------|

E---------------------------------------------------------------------------|
B--2-2-2-2-2-2--------------------------------------------------------------|
G--2-2-2-2-2-2--4--6-6-6-6-6-6-6-6--4-4-4-4-4-4-4-4--4-4-4-4-4-4-4-4--------|
D--2-2-2-2-2-2--4--6-6-6-6-6-6-6-6--4-4-4-4-4-4-4-4--4-4-4-4-4-4-4-4--------|
A---------------2--4-4-4-4-4-4-4-4--2-2-2-2-2-2-2-2--2-2-2-2-2-2-2-2--------|
E---------------------------------------------------------------------------|

E---------------------------------------------------------------------------|
B------------------------2-2-2-2-2-2----------------------------------------|
G--1-1-1-1-1-1-1-1--6-6--2-2-2-2-2-2----------------------------------------|
D--2-2-2-2-2-2-2-2--6-6--2-2-2-2-2-2----------------------------------------|
A--2-2-2-2-2-2-2-2--4-4-----------------------------------------------------|
E---------------------------------------------------------------------------|

E---------------------------------------------------------------------------|
B------------------------2-2-2-2-2-2----------------------------------------|
G--1-1-1-1-1-1-1-1--6-6--2-2-2-2-2-2----------------------------------------|
D--2-2-2-2-2-2-2-2--6-6--2-2-2-2-2-2----------------------------------------|
A--2-2-2-2-2-2-2-2--4-4-----------------------------------------------------|
E---------------------------------------------------------------------------|

Verse 3
E---------------------------------------------------------------------------|
B---------------------------------------------------------------------------|
G--1-1-1-1-1-1--2-2-/4-4-4-4-4-4--2-2---------------------------------------|
D--2-2-2-2-2-2--4-4-/6-6-6-6-6-6--2-2-----x4--------------------------------|
A--2-2-2-2-2-2--4-4-/6-6-6-6-6-6--------------------------------------------|
E---------------------------------------------------------------------------|

Chorus

E---------------------------------------------------------------------------|
B--2-2-2-2-2-2--------------------------------------------------------------|
G--2-2-2-2-2-2--4--6-6-6-6-6-6-6-6--4-4-4-4-4-4-4-4--1-1-1-1-1-1-1-1--------|
D--2-2-2-2-2-2--4--6-6-6-6-6-6-6-6--4-4-4-4-4-4-4-4--2-2-2-2-2-2-2-2--------|
A---------------2--4-4-4-4-4-4-4-4--2-2-2-2-2-2-2-2--2-2-2-2-2-2-2-2--------|
E---------------------------------------------------------------------------|

E---------------------------------------------------------------------------|
B--2-2-2-2-2-2--------------------------------------------------------------|
G--2-2-2-2-2-2--4--6-6-6-6-6-6-6-6--4-4-4-4-4-4-4-4--4-4-4-4-4-4-4-4--------|
D--2-2-2-2-2-2--4--6-6-6-6-6-6-6-6--4-4-4-4-4-4-4-4--4-4-4-4-4-4-4-4--------|
A---------------2--4-4-4-4-4-4-4-4--2-2-2-2-2-2-2-2--2-2-2-2-2-2-2-2--------|
E---------------------------------------------------------------------------|

E---------------------------------------------------------------------------|
B------------------------2-2-2-2-2-2----------------------------------------|
G--1-1-1-1-1-1-1-1--6-6--2-2-2-2-2-2----------------------------------------|
D--2-2-2-2-2-2-2-2--6-6--2-2-2-2-2-2----------------------------------------|
A--2-2-2-2-2-2-2-2--4-4-----------------------------------------------------|
E---------------------------------------------------------------------------|

E---------------------------------------------------------------------------|
B------------------------2-2-2-2-2-2----------------------------------------|
G--1-1-1-1-1-1-1-1--6-6--2-2-2-2-2-2----------------------------------------|
D--2-2-2-2-2-2-2-2--6-6--2-2-2-2-2-2----------------------------------------|
A--2-2-2-2-2-2-2-2--4-4-----------------------------------------------------|
E---------------------------------------------------------------------------|

E---------------------------------------------------------------------------|
B------------------------2-2-2-2-2-2----------------------------------------|
G--1-1-1-1-1-1-1-1--6-6--2-2-2-2-2-2----------------------------------------|
D--2-2-2-2-2-2-2-2--6-6--2-2-2-2-2-2----------------------------------------|
A--2-2-2-2-2-2-2-2--4-4-----------------------------------------------------|
E---------------------------------------------------------------------------|

E---------------------------------------------------------------------------|
B------------------------2-2-2-2-2-2----------------------------------------|
G--1-1-1-1-1-1-1-1--6-6--2-2-2-2-2-2----------------------------------------|
D--2-2-2-2-2-2-2-2--6-6--2-2-2-2-2-2----------------------------------------|
A--2-2-2-2-2-2-2-2--4-4-----------------------------------------------------|
E---------------------------------------------------------------------------|

Bridge

E---------------------------------------------------------------------------|
B---------------------------------------------------------------------------|
G--1-1-1-1-1-1--2-2-/4-4-4-4-4-4--2-2---------------------------------------|
D--2-2-2-2-2-2--4-4-/6-6-6-6-6-6--2-2-----x4--------------------------------|
A--2-2-2-2-2-2--4-4-/6-6-6-6-6-6--------------------------------------------|
E---------------------------------------------------------------------------|

Chorus

E---------------------------------------------------------------------------|
B--2-2-2-2-2-2--------------------------------------------------------------|
G--2-2-2-2-2-2--4--6-6-6-6-6-6-6-6--4-4-4-4-4-4-4-4--1-1-1-1-1-1-1-1--------|
D--2-2-2-2-2-2--4--6-6-6-6-6-6-6-6--4-4-4-4-4-4-4-4--2-2-2-2-2-2-2-2--------|
A---------------2--4-4-4-4-4-4-4-4--2-2-2-2-2-2-2-2--2-2-2-2-2-2-2-2--------|
E---------------------------------------------------------------------------|

E---------------------------------------------------------------------------|
B--2-2-2-2-2-2--------------------------------------------------------------|
G--2-2-2-2-2-2--4--6-6-6-6-6-6-6-6--4-4-4-4-4-4-4-4--4-4-4-4-4-4-4-4--------|
D--2-2-2-2-2-2--4--6-6-6-6-6-6-6-6--4-4-4-4-4-4-4-4--4-4-4-4-4-4-4-4--------|
A---------------2--4-4-4-4-4-4-4-4--2-2-2-2-2-2-2-2--2-2-2-2-2-2-2-2--------|
E---------------------------------------------------------------------------|

E---------------------------------------------------------------------------|
B------------------------2-2-2-2-2-2----------------------------------------|
G--1-1-1-1-1-1-1-1--6-6--2-2-2-2-2-2----------------------------------------|
D--2-2-2-2-2-2-2-2--6-6--2-2-2-2-2-2----------------------------------------|
A--2-2-2-2-2-2-2-2--4-4-----------------------------------------------------|
E---------------------------------------------------------------------------|

E---------------------------------------------------------------------------|
B------------------------2-2-2-2-2-2----------------------------------------|
G--1-1-1-1-1-1-1-1--6-6--2-2-2-2-2-2----------------------------------------|
D--2-2-2-2-2-2-2-2--6-6--2-2-2-2-2-2----------------------------------------|
A--2-2-2-2-2-2-2-2--4-4-----------------------------------------------------|
E---------------------------------------------------------------------------|

E---------------------------------------------------------------------------|
B------------------------2-2-2-2-2-2----------------------------------------|
G--1-1-1-1-1-1-1-1--6-6--2-2-2-2-2-2----------------------------------------|
D--2-2-2-2-2-2-2-2--6-6--2-2-2-2-2-2----------------------------------------|
A--2-2-2-2-2-2-2-2--4-4-----------------------------------------------------|
E---------------------------------------------------------------------------|

E-------------------------------------0-------------------------------------|
B------------------------2-2-2-2-2-2--0-------------------------------------|
G--1-1-1-1-1-1-1-1--6-6--2-2-2-2-2-2--1-------------------------------------|
D--2-2-2-2-2-2-2-2--6-6--2-2-2-2-2-2--2-------------------------------------|
A--2-2-2-2-2-2-2-2--4-4---------------2-------------------------------------|
E-------------------------------------0-------------------------------------|

************************************

| /   slide up
| \   slide down
| h   hammer-on
| p   pull-off
| ~   vibrato
| +   harmonic
| x   Mute note
| b   Bend
| pb  Pre-bend
| br  Bend release
| pbr Pre-bend release
| brb Bend release bend

************************************
Tap to rate this tab
 
# A B C D E F G H I J K L M N O P Q R S T U V W X Y Z