Guitaretab - guitar tabs
Song name
# A B C D E F G H I J K L M N O P Q R S T U V W X Y Z

Alphabeat - 10000 Nights Of Thunder tab

Alphabeat - 10,000 Nights
(This is Alphabeat)
Tabbed by mannchini@hotmail.com

Key:
/ slide up
^ Strike once, bend up, bend down

CAPO 2nd FRET


C C C C C C C C


C                          F     G
I was not looking for arty farty love
         Dm         Am      G
I wanted someone to love completely
Dm      Am        G
Someone more than weekly


C                   F      G
I was looking for a decent boy
      Dm             Am   G
For a tender glance
      Dm             Am  G
For a safety dance


Em  F      G
       The wuthering heights
Em  F          G
       And the stormy nights


            Am               Em
You give me 10,000 nights of thunder
    F                            C
But I will give them all back to you
                 F                          F#m                        G
'Cause you're so uhh (ddo-do-do), you're so ahh (ddo-do-do), you're so cool (ddo-do-do)


    C                                  F        G
You came like a thief in the night and stole my heart
       Dm                Am  G
Like a solitude erasure
        Dm               Am  G
Like an elevator
C                       F   G
I know we'd do anything for love
          Dm          Am  G
And it is you and me
        Dm        Am  G
For all eternity


Em  F      G
       The wuthering heights
Em  F          G
       And the stormy nights


            Am               Em
You give me 10,000 nights of thunder
    F                            C
But I will give them all back to you
                 F                          F#m                        G
'Cause you're so uhh (ddo-do-do), you're so ahh (ddo-do-do), you're so cool (ddo-do-do)

Baby you're so super-supremely-ba-ba-di-oh


              Am               Em
It feels like 10,000 nights of thunder
     F                C
When I spend one with you
                 F                          F#m                        G
'Cause you're so uhh (ddo-do-do), you're so ahh (ddo-do-do), you're so cool (ddo-do-do)

Baby you're so super-supremely-ba-ba-di-oh


e--------------------------------------------------------------------|
B--------------------------------------------------------------------|
G---14/16--16----14-16-14-----14-------------------------------------|
D--------------------------------16------16-14-16-14-----14----------|
A-----------------------------------------------------------17----17-|
E--------------------------------------------------------------------|


e---------------------------------------------------------------------------|
B---------------------------------------------------------------------------|
G---------------------------------------------------------------------------|
D---------------------------------------------------------------------------|
A---14-17----16-------------------------------------------------------------|
E---------------------------------------------------------------------------|

[ Tab from: http://www.guitaretab.com/a/alphabeat/110783.html ]
Dm                                    F           Am      G
Baby baby you're irresistible and I'm insatiable (ooh ooh-ohh)
     Dm                  F
Yeah love is an ocean of sweet emotion


e---------------------------------------------------------------------------|
B----------------------------------------------------12---12----------------|
G-------------------------------------------------14---14---14--14^-11------|
D---------12-----14-16--------12-14-16--------------------------------------|
A-----14-----14------------14-----------------------------------------------|
E---------------------------------------------------------------------------|


e---------------------------------------------------------------------------|
B---------------------------------------------------------------------------|
G---------------------------------------------------------------------------|
D----14--12-------------------------------12---------------12---------------|
A--------------14----------------12-14------------12-14---------------------|
E----------------------------14------------------14-------------------------|


e---------------------------------------------------------------------------|
B---------------------------------------------------------------------------|
G---------  14-16----------14-16--------11--14-11--149/11------------------|
D----14-16---------14-16-------------------------------------------14-------|
A---------------------------------------------------------------------------|
E---------------------------------------------------------------------------|


e---------------------|-----------------------------------------------------|
B---------------------|-----------------------------------------------------|
G---------------------|-----------------------------------------------------|
D--12-----12----------|-----------------------------------------------------|
A------14-------12-14-|-----------------------------------------------------|
E---------------------|-----------------------------------------------------|


          Am               Em
You give me 10,000 nights of thunder
    F                            C
But I will give them all back to you
                 F                          F#m                        G
'Cause you're so uhh (ddo-do-do), you're so ahh (ddo-do-do), you're so cool (ddo-do-do)

Baby you're so super-supremely-ba-ba-di-oh


              Am               Em
It feels like 10,000 nights of thunder
     F                C
When I spend one with you
                 F                          F#m                        G
'Cause you're so uhh (ddo-do-do), you're so ahh (ddo-do-do), you're so cool (ddo-do-do)

Baby you're so super-supremely-ba-ba-di-oh


Am
Doo-doo-doo
Em
Doo-doo-doo
F       C
Doo-doo-doooo
          F                          F#m                        G
You're so uhh (you're so), you're so ahh (you're so), you're so cool

Baby you're so super-supremely-ba-ba-di-oooooooooooooooh


Am
Doo-doo-doo
Em
Doo-doo-doo
F       C
Doo-doo-doooo
          F                          F#m              G
You're so uhh (you're so), you're so ahh (you're so).
Related for 10000 Nights Of Thunder tab