Song name
# A B C D E F G H I J K L M N O P Q R S T U V W X Y Z

Alphaville - Big In Japan tab

Help us improve GuitareTab! Take a short survey!
-------------------------------------------------------------------------------
			     BIG IN JAPAN - Alphaville
-------------------------------------------------------------------------------
Tabbed by: metallhead
Email: homesticky@gmail.com

Tuning: E A D G B E


Gtr I (E A D G B E) - 'Voice'
Gtr II (E A D G B E) - 'Keys'
Gtr III (E A D G B E) - 'Keys'

  Q=111
 4/4
  Gtr II
  E   E    S  S S S +H        E    E    S  S S S +Q    Q
|-3---------------3-(3)----|--3----------------5-(5)---3-----|
|-----5----3--3-5----------|-------5----3--3-5---------------|
|--------------------------|---------------------------------|
|--------------------------|---------------------------------|
|--------------------------|---------------------------------|
|--------------------------|---------------------------------|
|
| Gtr III
| S E   S +S  S S S  H       +S  E   S +S  S S S  Q   +S  E.
|---3----------------3-----|-(3)-3----------------5---(5)-3--|
|-------5-(5)-3-3-5--------|---------5-(5)-3-3-5-------------|
|--------------------------|---------------------------------|
|--------------------------|---------------------------------|
|--------------------------|---------------------------------|
|--------------------------|---------------------------------|


   E    E    S  S S S +S  S E    E    E
|--3----------------3-(3)-3----------------|
|-------5----3--3-5---------5----3----5----|
|------------------------------------------|
|------------------------------------------|
|------------------------------------------|
|------------------------------------------|
|
| +S  E   S +S  S S S  E    S S +S  E   S
|-(3)-3----------------3----3--------------|
|---------5-(5)-3-3-5---------5-(5)-3---5--|
|------------------------------------------|
|------------------------------------------|
|------------------------------------------|
|------------------------------------------|


   E.    S +E  E    E.      S  +E   E
|--7-----7-(7)-7---10------10-(10)-10----|
|----------------------------------------|
|----------------------------------------|
|----------------------------------------|
|----------------------------------------|
|----------------------------------------|
|
| +S  E.    E.   S +S   E.      E.     S
|-----7-----7----7-(7)-10------10-----10-|
|-(5)------------------------------------|
|----------------------------------------|
|----------------------------------------|
|----------------------------------------|
|----------------------------------------|


    E    E    S  S S S +S  S E    E    E      E    E    S  S S S +S  E   S E   E
|--------------------3-(3)-3---------------|--3----------------5-(5)-5---5-3---3----|
|---8--------------5---------5----3----5---|-------5----3--3-5----------------------|
|--------9----7--7-------------------------|----------------------------------------|
|------------------------------------------|----------------------------------------|
|------------------------------------------|----------------------------------------|
|------------------------------------------|----------------------------------------|
|
|  +S  E   S +S  S S S  E    S S +S  E   S   +S  E   S +S  S S S  E    E   S E   S
|-(10)------------------3----3-------------|-----3----------------5----5---5-3---3--|
|------8-------------5---------5-(5)-3---5-|-(5)-----5-(5)-3-3-5--------------------|
|----------9-(9)-7-7-----------------------|----------------------------------------|
|------------------------------------------|----------------------------------------|
|------------------------------------------|----------------------------------------|
|------------------------------------------|----------------------------------------|


   E    E    S  S S S +S  S E    E    E
|--3----------------3-(3)-3---------------|
|-------5----3--3-5---------5----3----5---|
|-----------------------------------------|
|-----------------------------------------|
|-----------------------------------------|
|-----------------------------------------|
|
| +S  E   S +S  S S S  E    S S +S  E   S
|-(3)-3----------------3----3-------------|
|---------5-(5)-3-3-5---------5-(5)-3---5-|
|-----------------------------------------|
|-----------------------------------------|
|-----------------------------------------|
|-----------------------------------------|


   E.    S +E  E    E    S  S  +S   S  E       +Q   Q   H
|--7-----7-(7)-7----7----5-10-(10)----------|-----------------------|
|----------------------------------10-12----|-(12)------------------|
|-------------------------------------------|-----------------------|
|-------------------------------------------|-----------------------|
|-------------------------------------------|-----------------------|
|-------------------------------------------|-----------------------|
|
|                                             Gtr I
| +S  E.    E.   S +S  E    S   E      S  S     Q   E E S E S +E  E
|-----7-----7----7-(7)-7----5--10-----------|-----------------------|
|-(5)---------------------------------10-12-|-----------------------|
|-------------------------------------------|-------0-0-------------|
|-------------------------------------------|-----------4-5-4-(4)-2-|
|-------------------------------------------|-----------------------|
|-------------------------------------------|-----------------------|


  Gtr I
  +Q   E E E E S E S   +E  E S E S +E  E E E
|--------------------|-----------------------|
|--------------------|-----------------------|
|------0-0-2-0-------|-----------------------|
|-(2)----------4-5-5-|-(5)-4-4-2-2-(2)-0-0---|
|--------------------|---------------------3-|
|--------------------|-----------------------|


  W          +Q   E E E S S +E  E
|----------|-----------------------|
|----------|-----------------------|
|----------|------0-0--------------|
|----------|----------4-5-4-(4)-2--|
|-2--------|-(2)-------------------|
|----------|-----------------------|


  +Q   E E E E E E   E E S E S +E  E E E
|------------------|---------------------|
|------------------|---------------------|
|------0-0-2-0-----|---------------------|
|-(2)----------4-5-|-5-4-4-2-2-(2)-0-0-2-|
|------------------|---------------------|
|------------------|---------------------|


  +E  E +Q   +H       +Q   E E S E S +E  E
|-------------------|----------------------|
|-------------------|----------------------|
|-------------------|------0-0-------------|
|-(2)-1-(1)--(1)----|-(1)------4-2-0-(0)-2-|
|-------------------|----------------------|
|-------------------|----------------------|


  Q  E E E S S +E  E   Q  E E S E. E  E
|--------------------|------------------|
|--------------------|------------------|
|--------------------|------------------|
|-0--4-5-4-5-4-(4)-5-|------------------|
|--------------------|-3--3-5-7-7--9-10-|
|--------------------|------------------|


   E. S Q  +H       +Q    E  E S E S +E  E
|-----------------|------------------------|
|-----------------|------------------------|
|-----------------|------------------------|
|-----------------|------------------------|
|-10--9-9--(9)----|-(9)--10-10-9-7-5-(5)-7-|
|-----------------|------------------------|


  Q  S E S +E  E E E   E S S +E. S E E E E   S S S S +Q   +S  S S S S S S S
|--------------------|---------------------|---------------------------------|
|--------------------|---------------------|---------------------------------|
|--------------------|-------------2-0-----|-0-------------------------------|
|----4-5-4-(4)-5-4-5-|-4-2-2-(2)-2-----4-2-|---4-2-4-(4)--(4)-4-4-4-5-4------|
|-5------------------|---------------------|----------------------------5-7--|
|--------------------|---------------------|---------------------------------|


   Q            E  E S E. S S S S
|---------------------------------|
|---------------------------------|
|---------------------------------|
|------------------5-5----5-4-2-4-|
|----------------------3----------|
|---------------------------------|
|
| Gtr II
|  S  S  S  S  +E  E H
|---------------------------------|
|---------------------------------|
|---------------------------------|
|-14-14-16-17-(17)----------------|
|---------------------------------|
|---------------------------------|


   Q            E  E S E. S S S S    Q          E. S E E E S S
|---------------------------------|----------------------------|
|---------------------------------|----------------------------|
|---------------------------------|----------------------------|
|------------------4-4------------|-------------5--4-2-4-5-----|
|----------------------2--2-2-2-3-|------------------------7-9-|
|---------------------------------|----------------------------|
|
|  S  S  S  S  +E  E H               S  S  S  S Q    H
|---------------------------------|----------------------------|
|---------------------------------|----------------------------|
|---------------------------------|----------------------------|
|---------------------------------|----------------------------|
|-17-17-19-21-(21)----------------|----------------------------|
|---------------------------------|-20-20-22-24----------------|


  S S E    Q   S S E    S S  S  S
|---------------------------------|
|---------------------------------|
|---------------------------------|
|-9-9----------9------------------|
|----------------------10-9-------|
|---------------------------10-12-|
|
| E   S S +Q   S S S S  Q
|--------------------2------------|
|-----1-4-(4)------4--------------|
|----------------5----------------|
|---------------------------------|
|---------------------------------|
|---------------------------------|


  Q        E   E S  E.  E S  S    +E  E  E  E  Q   E S  S
|------------------------------|---------------------------|
|------------------------------|---------------------------|
|------------------------------|---------------------------|
|------------------------------|---------------------------|
|-------------14-------10-9----|------9-10-12--------9-10--|
|------------------12-------10-|-(10)---------10--10-------|
|
| S S S S +E   E H                 W
|------------------------------|---------------------------|
|-5-5-7-8-(8)------------------|---------------------------|
|------------------------------|---------------------------|
|------------------------------|---------------------------|
|------------------------------|---------------------------|
|------------------------------|---------------------------|


   +E   E  E  E  E.  S  +E   E    H     +S   S  S  S  S  S  S  S
|------------------------------|---------------------------------|
|------------------------------|---------------------------------|
|------------------------------|---------------------------------|
|------------------------------|---------------------------------|
|-(10)-------------------------|---------------------------------|
|------12-12-14-15--14-(14)-12-|-14----(14)-14-14-14-15-14-10-12-|
|
|   W                             W
|------------------------------|---------------------------------|
|------------------------------|---------------------------------|
|------------------------------|---------------------------------|
|------------------------------|---------------------------------|
|------------------------------|---------------------------------|
|------------------------------|---------------------------------|


  Q        E   E  S E.  S S S S
|--------------------------------|
|--------------------------------|
|--------------------------------|
|--------------------------------|
|-------------10-10----10-9-7-9--|
|-------------------8------------|
|
| S S S S +E   E  H
|--------------------------------|
|-----7-8-(8)--------------------|
|-9-9----------------------------|
|--------------------------------|
|--------------------------------|
|--------------------------------|


  Q        E  E S E. S S S S   Q        E. S E E  E  S  S
|----------------------------|----------------------------|
|----------------------------|----------------------------|
|----------------------------|----------------------------|
|----------------------------|----------------------------|
|-------------9-9------------|---------10--9-7-9-10-------|
|-----------------7--7-7-7-8-|----------------------12-14-|
|
| S S S S +E  E H              S S S S  Q    H
|----------------------------|----------------------------|
|-----5-7-(7)----------------|-----3-5--------------------|
|-7-7------------------------|-5-5------------------------|
|----------------------------|----------------------------|
|----------------------------|----------------------------|
|----------------------------|----------------------------|


   S  S E    Q    S S E    S  S  S  S
|-------------------------------------|
|-------------------------------------|
|-------------------------------------|
|-------------------------------------|
|-14-14----------14-------------------|
|-------------------------15-14-10-12-|
|
|  E    S S +Q    S S S S  Q
|-----------------------2-------------|
|---------4-(4)-------4---------------|
|-------5-----------5-----------------|
|-------------------------------------|
|-------------------------------------|
|-------------------------------------|


  Q        E   E S  E.  E S  S    +E  E  E  E  Q   E S  S
|------------------------------|--------------------------|
|------------------------------|--------------------------|
|------------------------------|--------------------------|
|------------------------------|--------------------------|
|-------------14-------10-9----|------9-10-12--------9-10-|
|------------------12-------10-|-(10)---------10--10------|
|
| S S S S +E   E H                 W
|------------------------------|--------------------------|
|-5-5-7-8-(8)------------------|--------------------------|
|------------------------------|--------------------------|
|------------------------------|--------------------------|
|------------------------------|--------------------------|
|------------------------------|--------------------------|


   +E   E  E  E  E.  S  +E   E    H.       Q
|------------------------------|---------------|
|------------------------------|---------------|
|------------------------------|---------------|
|------------------------------|---------------|
|-(10)-------------------------|---------------|
|------12-12-14-15--14-(14)-12-|-14------------|
|
|   W                             H     Q  E E
|------------------------------|-----------7-7-|
|------------------------------|---------------|
|------------------------------|---------------|
|------------------------------|---------------|
|------------------------------|---------------|
|------------------------------|---------------|


  Gtr II
  S E. +Q   S  E.  +Q      S  E.  +Q    H
|-7---------8-10--(10)--|-10-12--(12)--------|
|---5--(5)--------------|--------------12----|
|-----------------------|--------------------|
|-----------------------|--------------------|
|-----------------------|--------------------|
|-----------------------|--------------------|


   E.  S  +E   E  +E   E  +E   E    H.       E  E
|-------------12-(12)-10-(10)----|----------------|
|-12--10-(10)-----------------10-|-12-------12-12-|
|--------------------------------|----------------|
|--------------------------------|----------------|
|--------------------------------|----------------|
|--------------------------------|----------------|


   S  E.  +Q    S  E.  +Q      S  E.  +Q    Q   E  E
|--------------12-----------|------------------------|
|-12--------------13--(13)--|-15-17--(17)------------|
|---------------------------|--------------16--16-16-|
|----14--(14)---------------|------------------------|
|---------------------------|------------------------|
|---------------------------|------------------------|


   E.  S  +E   E  +E   E  +E   E    E.  S  +E   E  +E   E  E  E
|-------------12-(12)-10-(10)----|-----10-(10)-12-(12)-15-------|
|-----------------------------10-|-12---------------------------|
|-16--14-(14)--------------------|------------------------16-16-|
|--------------------------------|------------------------------|
|--------------------------------|------------------------------|
|--------------------------------|------------------------------|


  Gtr I
   Q      E  E  E  E  S  E  S
|-----------------------------|
|-----------------------------|
|-----------------------------|
|-----------------------------|
|-----------------------------|
|--------15-15-17-15-14-12-12-|
|
| Gtr II
|  S  E.  Q     H
|-----------------------------|
|-----------------------------|
|-16--------------------------|
|----14-----------------------|
|-----------------------------|
|-----------------------------|


   +Q    E  E  S  E S +E   E    E E S E S +E  E S E.   W
|----------------------------|-----------------------|------|
|----------------------------|-----------------------|------|
|----------------------------|-----------------------|------|
|----------------------------|-----------------------|------|
|-------10-10-12-10-9-(9)-10-|-10-9-9-7-7-(7)-5-5-3--|-2----|
|-(12)-----------------------|-----------------------|------|
|
|   W                           W                      W
|----------------------------|-----------------------|------|
|----------------------------|-----------------------|------|
|----------------------------|-----------------------|------|
|----------------------------|-----------------------|------|
|----------------------------|-----------------------|------|
|----------------------------|-----------------------|------|


  +Q   S E S +E  E E E   E. S S E S +E  E E E
|----------------------|----------------------|
|----------------------|----------------------|
|------0-0-2-(2)-0-----|------0-0-2-(2)-0-----|
|------------------4-2-|-2--2-------------4-5-|
|-(2)------------------|----------------------|
|----------------------|----------------------|


  S E S +E  E S E S +E  E   +E  E +Q   +H
|-------------------------|-------------------|
|-------------------------|-------------------|
|-------------------------|-------------------|
|-5-4-4-(4)-2-2-0-0-(0)---|-------------------|
|-----------------------3-|-(3)-2-(2)--(2)----|
|-------------------------|-------------------|


  +Q   E E S E S +E  E   Q  E E E S S +E  E
|----------------------|--------------------|
|----------------------|--------------------|
|------0-0-------------|--------------------|
|----------4-2-0-(0)-2-|-0--4-5-4-5-4-(4)-5-|
|-(2)------------------|--------------------|
|----------------------|--------------------|


  Q  E E S E. E  E    E. S Q  +H
|------------------|-----------------|
|------------------|-----------------|
|------------------|-----------------|
|------------------|-----------------|
|-3--3-5-7-7--9-10-|-10--9-9--(9)----|
|------------------|-----------------|


  +Q    E  E S E S +E  E   Q  S E S +E  E E E   E S S +E. S E E E E
|------------------------|--------------------|---------------------|
|------------------------|--------------------|---------------------|
|------------------------|--------------------|-------------2-0-----|
|------------------------|----4-5-4-(4)-5-4-5-|-4-2-2-(2)-2-----4-2-|
|-(9)--10-10-9-7-5-(5)-7-|-5------------------|---------------------|
|------------------------|--------------------|---------------------|


  S S S S +Q   +S  S S S S S S S    Q            E  E S E. S S S S
|--------------------------------|---------------------------------|
|--------------------------------|---------------------------------|
|-0------------------------------|---------------------------------|
|---4-2-4-(4)--(4)-4-4-4-5-4-----|------------------5-5----5-4-2-4-|
|----------------------------5-7-|----------------------3----------|
|--------------------------------|---------------------------------|
|
| Gtr II
| W                                 S  S  S  S  +E  E H
|--------------------------------|---------------------------------|
|--------------------------------|---------------------------------|
|--------------------------------|---------------------------------|
|--------------------------------|-14-14-16-17-(17)----------------|
|--------------------------------|---------------------------------|
|--------------------------------|---------------------------------|


   Q            E  E S E. S S S S
|----------------------------------|
|----------------------------------|
|----------------------------------|
|------------------4-4-------------|
|----------------------2--2-2-2-3--|
|----------------------------------|
|
|  S  S  S  S  +E  E H
|----------------------------------|
|----------------------------------|
|----------------------------------|
|----------------------------------|
|-17-17-19-21-(21)-----------------|
|----------------------------------|


   Q          E. S E E E S S   S S E    Q   S S E    S S  S  S
|----------------------------|---------------------------------|
|----------------------------|---------------------------------|
|----------------------------|---------------------------------|
|-------------5--4-2-4-5-----|-9-9----------9------------------|
|------------------------7-9-|----------------------10-9-------|
|----------------------------|---------------------------10-12-|
|
|  S  S  S  S Q    H           E   S S +Q   S S S S  Q
|----------------------------|--------------------2------------|
|----------------------------|-----1-4-(4)------4--------------|
|----------------------------|----------------5----------------|
|----------------------------|---------------------------------|
|----------------------------|---------------------------------|
|-20-20-22-24----------------|---------------------------------|


  Q        E   E S  E.  E S  S
|-------------------------------|
|-------------------------------|
|-------------------------------|
|-------------------------------|
|-------------14-------10-9-----|
|------------------12-------10--|
|
| S S S S +E   E H
|-------------------------------|
|-5-5-7-8-(8)-------------------|
|-------------------------------|
|-------------------------------|
|-------------------------------|
|-------------------------------|


   +E  E  E  E  Q   E S  S    +E   E  E  E  E.  S  +E   E
|--------------------------|------------------------------|
|--------------------------|------------------------------|
|--------------------------|------------------------------|
|--------------------------|------------------------------|
|------9-10-12--------9-10-|-(10)-------------------------|
|-(10)---------10--10------|------12-12-14-15--14-(14)-12-|


   H     +S   S  S  S  S  S  S  S
|----------------------------------|
|----------------------------------|
|----------------------------------|
|----------------------------------|
|----------------------------------|
|-14----(14)-14-14-14-15-14-10-12--|


  Q        E   E  S E.  S S S S
|-------------------------------|
|-------------------------------|
|-------------------------------|
|-------------------------------|
|-------------10-10----10-9-7-9-|
|-------------------8-----------|
|
| Gtr II
| S S S S +E   E  H
|-------------------------------|
|-----7-8-(8)-------------------|
|-9-9---------------------------|
|-------------------------------|
|-------------------------------|
|-------------------------------|


  Q        E  E S E. S S S S   Q        E. S E E  E  S  S
|----------------------------|----------------------------|
|----------------------------|----------------------------|
|----------------------------|----------------------------|
|----------------------------|----------------------------|
|-------------9-9------------|---------10--9-7-9-10-------|
|-----------------7--7-7-7-8-|----------------------12-14-|
|
| S S S S +E  E H              S S S S  Q    H
|----------------------------|----------------------------|
|-----5-7-(7)----------------|-----3-5--------------------|
|-7-7------------------------|-5-5------------------------|
|----------------------------|----------------------------|
|----------------------------|----------------------------|
|----------------------------|----------------------------|


   S  S E    Q    S S E    S  S  S  S
|-------------------------------------|
|-------------------------------------|
|-------------------------------------|
|-------------------------------------|
|-14-14----------14-------------------|
|-------------------------15-14-10-12-|
|
|  E    S S +Q    S S S S  Q
|-----------------------2-------------|
|---------4-(4)-------4---------------|
|-------5-----------5-----------------|
|-------------------------------------|
|-------------------------------------|
|-------------------------------------|


  Q        E   E S  E.  E S  S    +E  E  E  E  Q   E S  S
|------------------------------|---------------------------|
|------------------------------|---------------------------|
|------------------------------|---------------------------|
|------------------------------|---------------------------|
|-------------14-------10-9----|------9-10-12--------9-10--|
|------------------12-------10-|-(10)---------10--10-------|
|
| S S S S +E   E H                 W
|------------------------------|---------------------------|
|-5-5-7-8-(8)------------------|---------------------------|
|------------------------------|---------------------------|
|------------------------------|---------------------------|
|------------------------------|---------------------------|
|------------------------------|---------------------------|


   +E   E  E  E  E.  S  +E   E    H     +S   S  S  S  S  S  S  S
|------------------------------|---------------------------------|
|------------------------------|---------------------------------|
|------------------------------|---------------------------------|
|------------------------------|---------------------------------|
|-(10)-------------------------|---------------------------------|
|------12-12-14-15--14-(14)-12-|-14----(14)-14-14-14-15-14-10-12-|
|
| Gtr III
|   W                             W
|------------------------------|---------------------------------|
|------------------------------|---------------------------------|
|------------------------------|---------------------------------|
|------------------------------|---------------------------------|
|------------------------------|---------------------------------|
|------------------------------|---------------------------------|


  Gtr II
  E    E      S   S  S  S +S  S  E      E     E
|-----------------------3-(3)-3---------------------|
|-8------------------5-----------5------3-----5-----|
|------9------7---7---------------------------------|
|---------------------------------------------------|
|---------------------------------------------------|
|---------------------------------------------------|
|
| S  E    S  +S   S  S  S  E     S  S  +S   E    S
|---------------------------------------------------|
|---------------------------------------------------|
|---12--------------------12----12------------------|
|--------14-(14)-12-12-14----------14-(14)-12---14--|
|---------------------------------------------------|
|---------------------------------------------------|


    E     E      S   S  S  S +S  E    S  E    E
|---3----------------------5-(5)-5----5--3----3----|
|---------5------3---3--5--------------------------|
|--------------------------------------------------|
|--------------------------------------------------|
|--------------------------------------------------|
|--------------------------------------------------|
|
|  +S   E    S  +S   S  S  S  E     E    S  E    S
|--------------------------------------------------|
|--------------------------------------------------|
|------12--------------------14----14---14-12---12-|
|-(14)------14-(14)-12-12-14-----------------------|
|--------------------------------------------------|
|--------------------------------------------------|


    E     E      S   S  S  S +S  S  E      E     E        E.     S +E  E      E     S  S  +S   S
|3----------------------3-(3)-3--------------------|---7------7-(7)-7------7-----5-10-(10)------|
|------5------3---3--5-----------5------3-----5----|---------------------------------------10-12|
|--------------------------------------------------|--------------------------------------------|
|--------------------------------------------------|--------------------------------------------|
|-------------------------------------------------|--------------------------------------------|
|--------------------------------------------------|--------------------------------------------|
|
|  +S   E    S  +S   S  S  S  E     S  S  +S   E    S    +S   E.    E.    S  +S   E    S   E   
|------------------------------------------------|-----------------------------------10----------|
|------------------------------------------------|------12----12----12-(12)-12---10---------10-12|
|-(12)-12---------------12----12-----------------|-----------------------------------------------|
|------14-(14)-12-12-14----------14-(14)-12---14-|-(14)------------------------------------------|
|------------------------------------------------|-----------------------------------------------|
|------------------------------------------------|-----------------------------------------------|


    E      E      S   S  S  S  +S   S  E      E      E
|---------------------------------------------------------|
|---------------------------------------------------------|
|--12----------------------12-(12)-12---------------------|
|---------14-----12--12-14------------14-----12-----14----|
|---------------------------------------------------------|
|---------------------------------------------------------|
|
|  +S   E     S  +S   S  S  S   E      S  S  +S   E     S
|---------------------------------------------------------|
|-(12)----------------------------------------------------|
|------12----------------------12-----12------------------|
|------------14-(14)-12-12-14------------14-(14)-12----14-|
|---------------------------------------------------------|
|---------------------------------------------------------|


    E      E      S   S  S  S  +S   E     S  E     E
|-------------------------------------------------------|
|-------------------------------------------------------|
|--12----------------------14-(14)-14----14-12----12----|
|---------14-----12--12-14------------------------------|
|-------------------------------------------------------|
|-------------------------------------------------------|
|
|  +S   E     S  +S   S  S  S   E      E     S  E     S
|-------------------------------------------------------|
|-------------------------------------------------------|
|------12----------------------14-----14----14-12----12-|
|-(14)-------14-(14)-12-12-14---------------------------|
|-------------------------------------------------------|
|-------------------------------------------------------|


    E      E      S   S  S  S  +S   S  E      E      E
|---------------------------------------------------------|
|---------------------------------------------------------|
|--12----------------------12-(12)-12---------------------|
|---------14-----12--12-14------------14-----12-----14----|
|---------------------------------------------------------|
|---------------------------------------------------------|
|
|  +S   E     S  +S   S  S  S   E      S  S  +S   E     S
|---------------------------------------------------------|
|---------------------------------------------------------|
|-(12)-12----------------------12-----12------------------|
|------------14-(14)-12-12-14------------14-(14)-12----14-|
|---------------------------------------------------------|
|---------------------------------------------------------|


    E.      S  +E   E      E      S  S  +S   S  E       S  S  S  S  +E   E  H
|-----------------------------------10-(10)----------|------------------------------------|
|--12------12-(12)-12-----12-----10---------10-12----|------------------------------------|
|----------------------------------------------------|------------------------------------|
|----------------------------------------------------|-14-14-16-17-(17)-------------------|
|----------------------------------------------------|------------------------------------|
|----------------------------------------------------|------------------------------------|
|
|                                                      Gtr I
|  +S   E.      E.     S  +S   S  S  S   S   S  S  S    Q            E   E  S E.  S S S S
|----------------------------------------------------|------------------------------------|
|------12------12-----12-(12)------------------------|------------------------------------|
|----------------------------------------------------|------------------------------------|
|-(14)-----------------------------------------------|------------------------------------|
|----------------------------------------------------|------------------10-10----10-9-7-9-|
|-----------------------------14-14-14--15--14-10-12-|------------------------8-----------|


  Gtr I
   Q            E  E S E. S S S S    Q           E. S E E  E  S  S
|---------------------------------|--------------------------------|
|---------------------------------|--------------------------------|
|---------------------------------|--------------------------------|
|---------------------------------|--------------------------------|
|------------------9-9------------|-------------10--9-7-9-10-------|
|----------------------7--7-7-7-8-|--------------------------12-14-|
|
| Gtr II
|  S  S  S  S  +E  E H               S  S  S  S  Q    H
|---------------------------------|--------------------------------|
|---------------------------------|--------------------------------|
|---------------------------------|--------------------------------|
|---------------------------------|--------------------------------|
|-17-17-19-21-(21)----------------|--------------------------------|
|---------------------------------|-20-20-22-24--------------------|


   S  S E    Q    S S E    S  S  S  S
|-------------------------------------|
|-------------------------------------|
|-------------------------------------|
|-------------------------------------|
|-14-14----------14-------------------|
|-------------------------15-14-10-12-|
|
|  E    S S +Q    S S S S  Q
|-----------------------2-------------|
|-------1-4-(4)-------4---------------|
|-------------------5-----------------|
|-------------------------------------|
|-------------------------------------|
|-------------------------------------|


  Q        E   E S  E.  E S  S
|------------------------------|
|------------------------------|
|------------------------------|
|------------------------------|
|-------------14-------10-9----|
|------------------12-------10-|
|
| S S S S +E   E H
|------------------------------|
|-5-5-7-8-(8)------------------|
|------------------------------|
|------------------------------|
|------------------------------|
|------------------------------|


   +E  E  E  E  Q   E S  S    +E   E  E  E  E.  S  +E   E
|--------------------------|------------------------------|
|--------------------------|------------------------------|
|--------------------------|------------------------------|
|--------------------------|------------------------------|
|------9-10-12--------9-10-|-(10)-------------------------|
|-(10)---------10--10------|------12-12-14-15--14-(14)-12-|
|
|   W                          W
|--------------------------|------------------------------|
|--------------------------|------------------------------|
|--------------------------|------------------------------|
|--------------------------|------------------------------|
|--------------------------|------------------------------|
|--------------------------|------------------------------|


   H     +S   S  S  S  S  S  S  S
|---------------------------------|
|---------------------------------|
|---------------------------------|
|---------------------------------|
|---------------------------------|
|-14----(14)-14-14-14-15-14-10-12-|
|
|  W
|---------------------------------|
|---------------------------------|
|---------------------------------|
|---------------------------------|
|---------------------------------|
|---------------------------------|


  Q        E   E  S E.  S S S S   Q        E  E S E. S S S S
|-------------------------------|-----------------------------|
|-------------------------------|-----------------------------|
|-------------------------------|-----------------------------|
|-------------------------------|-----------------------------|
|-------------10-10----10-9-7-9-|-------------9-9-------------|
|-------------------8-----------|-----------------7--7-7-7-8--|
|
| S S S S +E   E  H               S S S S +E  E H
|-------------------------------|-----------------------------|
|-----7-8-(8)-------------------|-----5-7-(7)-----------------|
|-9-9---------------------------|-7-7-------------------------|
|-------------------------------|-----------------------------|
|-------------------------------|-----------------------------|
|-------------------------------|-----------------------------|


  Q        E. S E E  E  S  S    S  S E    Q    S S E    S  S  S  S
|----------------------------|-------------------------------------|
|----------------------------|-------------------------------------|
|----------------------------|-------------------------------------|
|----------------------------|-------------------------------------|
|---------10--9-7-9-10-------|-14-14----------14-------------------|
|----------------------12-14-|-------------------------15-14-10-12-|
|
| S S S S  Q    H               E    S S +Q    S S S S  Q
|----------------------------|-----------------------2-------------|
|-----3-5--------------------|---------4-(4)-------4---------------|
|-5-5------------------------|-------5-----------5-----------------|
|----------------------------|-------------------------------------|
|----------------------------|-------------------------------------|
|----------------------------|-------------------------------------|


  Q        E   E S  E.  E S  S
|-------------------------------|
|-------------------------------|
|-------------------------------|
|-------------------------------|
|-------------14-------10-9-----|
|------------------12-------10--|
|
| S S S S +E   E H
|-------------------------------|
|-5-5-7-8-(8)-------------------|
|-------------------------------|
|-------------------------------|
|-------------------------------|
|-------------------------------|


   +E  E  E  E  Q   E S  S    +E   E  E  E  E.  S  +E   E
|--------------------------|------------------------------|
|--------------------------|------------------------------|
|--------------------------|------------------------------|
|--------------------------|------------------------------|
|------9-10-12--------9-10-|-(10)-------------------------|
|-(10)---------10--10------|------12-12-14-15--14-(14)-12-|


   H     +S   S  S  S  S  S  S  S
|----------------------------------|
|----------------------------------|
|----------------------------------|
|----------------------------------|
|----------------------------------|
|-14----(14)-14-14-14-15-14-10-12--|


   S  E  S  E  S  S S E S E S S
|-------------------------------|
|-------------------------------|
|-------------------------------|
|-------------------------------|
|-------------------------------|
|-12-12-12-12-12-12-8-8-8-8-8-8-|


   S  E  S  E  S  S S E S E S S   S E S E S S S E S E S S
|-------------------------------|--------------------------|
|-------------------------------|--------------------------|
|-------------------------------|--------------------------|
|-------------------------------|--------------------------|
|-------------------------------|--------------------------|
|-10-10-10-10-10-10-7-7-7-7-7-7-|-8-8-8-8-8-8-5-5-5-5-5-5--|


  S E S E S S S E S E S S
|----------------------------*|
|----------------------------*|
|----------------------------*|
|----------------------------*|
|----------------------------*|
|-7-7-7-7-7-7-7-7-7-7-7-7----*|


Duration Legend
---------------
W - whole; H - half; Q - quarter; E - 8th; S - 16th; T - 32nd; X - 64th; a - acciaccatura
+ - note tied to previous; . - note dotted; .. - note double dotted
Uncapitalized letters represent notes that are staccato (1/2 duration)
Irregular groupings are notated above the duration line
Duration letters will always appear directly above the note/fret number it represents the
duration for.  Duration letters with no fret number below them represent rests.  Multi-
bar rests are notated in the form Wxn, where n is the number of bars to rest for.  Low
melody durations appear below the staff

Tablature Legend
----------------
 h   - hammer-on
 p   - pull-off
 b   - bend
 pb  - pre-bend
 r   - bend release (if no number after the r, then release immediately)
 /\  - slide into or out of (from/to "nowhere")
 s   - legato slide
 S   - shift slide
  - natural harmonic
[n]  - artificial harmonic
n(n) - tapped harmonic
 ~   - vibrato
 tr  - trill
 T   - tap
 TP  - trem. picking
 PM  - palm muting
\n/  - tremolo bar dip; n = amount to dip
 \n  - tremolo bar down
 n/  - tremolo bar up
/n\  - tremolo bar inverted dip
 =   - hold bend; also acts as connecting device for hammers/pulls
 <>  - volume swell (louder/softer)
 x   - on rhythm slash represents muted slash
 o   - on rhythm slash represents single note slash

Misc Legend
-----------
 |  - bar
||  - double bar
||o - repeat start
o|| - repeat end
*|  - double bar (ending)
 :  - bar (freetime)
 $  - Segno
 &  - Coda
Tempo markers -  = BPM(8/16=s8/s16), where s8 = swing 8ths, s16 = swing 16ths
Related for Big In Japan tab