Song name
# A B C D E F G H I J K L M N O P Q R S T U V W X Y Z

Alpine - Villages tab

Villages
Alpine
Zurich EP

http://www.alpineband.com/

tab by theorganicboy
mon.nom.est.thomas.martin(at)gmail(dot)com

so beautiful

Verse 1:
e|----------------------------------------------------|
b|----------------------------------------------------|
g|------0-----2-----------0-----2-----------0-----2---|
d|---4--x--4--x--------4--x--4--x--------4--x--4--x---|
a|---0--2--0-x4--------0--2--0-x4--------0--2--0-x4---|
d|---0--2--0-x4--------0--2--0-x4--------0--2--0-x4---|

e|-----------------------------------------(------------)---|
b|-----------------------------------------(------------)---|
g|------0-----2-----------0-----2-------6--(-----0-----2)---|
d|---4--x--4--x--------4--x--4--x---4---x--(4----x--4--x)---|
a|---0--2--0-x4--------0--2--0-x4---0--x7--(0----2--0-x4)---|
d|---0--2--0-x4--------0--2--0-x4---0--x7--(0----2--0-x4)---|
                                             ^back at the beginning

 gtr 2: (I guess it's the bass line)      last one
e|---------------------------------------|----------|
b|---------------------------------------|----------|
g|---------------------------------------|----------|
d|-----9h11-----9h11-----9h11-----9h11---|-----11---|
a|---9--------9--------9--------9--------|---9------|
d|---------------------------------------|----------|

Chorus:
              (x3)                 then:
e|--------------------------------|---------------------|
b|--------------------------------|---------------------|
g|---6-6-6--6-6-6-----------------|---6-6-6--6-6-6------|
d|---5-5-5--x-x-x--0-0-0--2-2-0---|---5-5-5--x-x-x--0---|
a|---5-5-5--7-7-7--0-0-0--2-2-0---|---5-5-5--7-7-7--0---|
d|---5-5-5--7-7-7--0-0-0--2-2-0---|---5-5-5--7-7-7--0---|

Second and Last Chorus:
              (x3)                 then:
e|--------------------------------|---------------------------|
b|--------------------------------|---------------------------|
g|---6-6-6--6-6-6-----------------|---6-6-6--6-6-6------------|
d|---5-5-5--x-x-x--0-0-0--2-2-0---|---5-5-5--x-x-x--0000000---|
a|---5-5-5--7-7-7--0-0-0--2-2-0---|---5-5-5--7-7-7--0000000---|
d|---5-5-5--7-7-7--0-0-0--2-2-0---|---5-5-5--7-7-7--0000000---|
Tap to rate this tab
 
# A B C D E F G H I J K L M N O P Q R S T U V W X Y Z