Song name
# A B C D E F G H I J K L M N O P Q R S T U V W X Y Z

Alpinestars - Snow Patrol Part 2 tab

-------------------------------------------------------------------------------
			     Snow Patrol (Part 2) - Alpinestar
-------------------------------------------------------------------------------
Tabbed by: DreaminElectric

Tuning: Standard
Kind of a useless little song to know, but quite calming to play. Only 2 parts, I'm sure 
can figure out what to play when.

Part A:

e|--------------------------------------|
B|--------------------------------------|
G|--------------------------------------|
D|-----6--------------------------------|
A|-8-6-----6-8---------4----6-----------|
E|-----------------6-8--------8---------|


Part B:

e|--------------------------------------|
B|--------------------------------------|
G|--------------------------------------|
D|--------------------------------------|
A|-8-8-6-8-----------------4----6-------|
E|---------6----4-6-6-4-6---------------|


http://www.myspace.com/alpinestarsmusic
Tap to rate this tab
# A B C D E F G H I J K L M N O P Q R S T U V W X Y Z