Song name
# A B C D E F G H I J K L M N O P Q R S T U V W X Y Z

Alquimia - Anhelos De Volar chords

ALQUIMIA - ANHELOS DE VOLAR
WEB: www.alquimiahardrock.com.ar

----- INTRODUCCION (PUNTEO) -----
E||-----------------------|-----------------------|
B||-----------------------|-----------------------|
G||-----4--6--7-----------|-----4--6--7-----------|
D||--4--------------------|-----------------------|
A||-----------------------|--5--------------------|
E||-----------------------|-----------------------|

-------------------------|-------------------|-----------------------|
-------------------------|-------------------|-----------------------|
-----4--6--7----9----7---|--6----------------|-----4--6--7-----------|
--7----------------------|-------------------|--4--------------------|
-------------------------|-------------------|-----------------------|
-------------------------|-------------------|-----------------------|

-----------------------|------------------------|-------------------|
-----------------------|------------------------|-------------------|
-----4--6--7-----------|-----4--6--7----6---4---|--6----------------|
-----------------------|--7---------------------|-------------------|
--5--------------------|------------------------|-------------------|
-----------------------|------------------------|-------------------|

----- INTRODUCCION (ACORDES) -----
SI SOL RE LA - SI SOL RE FA#

----- PRIMER VERSO -----
SI             SOL
Estoy cansado de tus reproches.
RE             LA
Lo que vivimos se ha terminado.
SI             SOL
Ya no me importa como te sientes.
RE             FA#
Todo ha pasado, te eh olvidado.

SI                SOL
Yo ya estoy arto, ya no lo aguanto.
RE          LA
Yo necesito seguir mi vida.
SI            SOL
Para tus ojos yo ya no existo.
RE             FA#
Y tus problemas no los registro.

----- SEGUNDO VERSO -----
SI     LA          FA#     SOL
Ya no somos lo que fuimos ayer.
SI       SOL       FA#      LA
Estoy pensando en otra mujer.

----- INTRODUCCIÓN -----

----- PRIMER VERSO -----
SI            SOL
En un momento fuimos perfectos.
RE             LA
Pero el tiempo es traicionero.
SI             SOL
Yo me di cuenta, no es lo que quiero.
RE                 FA#
Tú no lo entiendes, ya no te quiero.

SI              SOL
Hoy es distinto, estoy con otra.
SOL             LA
Ella me entiende y no me ahoga.
SI              SOL
Tú no me olvidas y me persigues.
RE            FA#
Yo te lo pido déjame libre.


----- SEGUNDO VERSO -----
SI     LA          FA#     SOL
Ya no somos lo que fuimos ayer.
SI       SOL       FA#      LA
Estoy pensando en otra mujer.

----- ESTRIBILLO -----
SI     SOL        RE     LA
Tengo anhelos de poder volar,
SI      SOL     RE       LA
Como un ave que va rumbo al mar.
SI      SOL       RE     LA
Tú me ataste a la tempestad,
SI       SOL      RE      LA
Como un perro con sed de matar.

----- PRE SOLO -----
SI SOL RE LA - SI SOL RE FA#

----- SOLO (ACORDES) -----
SI SOL RE - SI SOL RE#
SI SOL RE - SI SOL RE#
SI SOL RE - SI SOL RE#

----- INTRODUCCION -----

----- PRIMER VERSO -----
SI             SOL
Hoy me llamaste casi llorando.
RE           LA
Para pedirme estar a tu lado.
SI            SOL
Ya te lo dije, estoy con otra.
RE             FA#
Ya no me llames que me trastorna.

SI                SOL
Por que no quemas, aquellas cartas,
RE              LA
Que de mi parte, dicen te quiero.
SI              SOL
Fue hace tiempo, ya no es lo mismo.
RE              FA#
Ya no lo siento, porque ha muerto.

----- SEGUNDO VERSO -----
SI     LA          FA#     SOL
Ya no somos lo que fuimos ayer.
SI       SOL       FA#      LA
Estoy pensando en otra mujer.

----- ESTRIBILLO -----
SI     SOL        RE     LA
Tengo anhelos de poder volar,
SI      SOL     RE       LA
Como un ave que va rumbo al mar.
SI      SOL       RE     LA
Tú me ataste a la tempestad,
SI       SOL      RE      LA
Como un perro con sed de matar.

----- INTRODUCCION -----

----- INTRODUCCION -----

----- SOLO (ACORDES) -----
SI SOL RE LA - SI SOL RE FA#
SI SOL RE LA - SI SOL RE FA#
Tap to rate this tab
 
# A B C D E F G H I J K L M N O P Q R S T U V W X Y Z