Song name
# A B C D E F G H I J K L M N O P Q R S T U V W X Y Z

Alt F4 - Yo Ladai tab

Yo Ladai….!
-Alt F4
Tabbed by: Aashik Shrestha

The Lead for the Song "Ladai" is finally tabbed out by Aashik Shrestha. He qualified for 
Top 20 Guitarists in "Guitar Maestro-2010".
E||-----------------------------------|-------------------|
B||-----------------------------------|-------------------|
G||-----------------------4-----------|-------------------|
D||--4h-6--4-------------------4------|-------------------|
A||-----------6-4--2------------------|--2----------------|
E||-----------------------------------|-------------------|


-----------------------------|---------------------------------------|
-----------------------------|---------------------------------------|
-----------------------------|---------------------------------------|
-----------------------------|---------------------------------------|
-----6--7-6------7--9-7------|--9--11-9------11-12--11----12-14-12---|
--0-----------0-----------0--|------------0------------0-----------0-|


----------------------------||
----------------------------||
--------------------11------||
----------12----------------||
------12-------12-----------||
--10------------------------||

©Musicmyth: Guitar Tabs and Chords for “Yo Ladai….” By Alt F4
 
http://musicmyth.blogspot.com
Tap to rate this tab
 
# A B C D E F G H I J K L M N O P Q R S T U V W X Y Z