Song name
# A B C D E F G H I J K L M N O P Q R S T U V W X Y Z

Alt-j - Dissolve Me tab

d  |-----------------------------------------------------|
a  |--9---9-9--9-----7---7-------5--5-7--7------5---5----|
F# |--8---8-8--8-----7---7-------5--5-7--7------3---3----|
D  |-----------------------------------------------------|
A  |-----------------------------------------------------|
D  |--9----------7------------5-------------0------------|

This is the main riff, some parts of the verse have none of this at all, some have 
just the bass, some have just the keyboard part.  You might find it's easier to 
watch just one line of tab and use your mind to read it differently than me typing 
out the whole thing and you scroll.  That and I'm lazy =)

d  |------------------------------------------0--------2--------4------2-----------0-------0-|
a  |-----------------------------------------------------------------------------------------|
F#|------------------------------------------------------------------------------------------|
D |----------------------------------------4--------5-------0--------------------------------|
A |-----------------------------------------------------------------0------------------------|
D |---9-----7---------12----/16-\5------------------------------------------4--------5-------|
And pulse to pulse, now shu-----u---ush        She makes the sound the sound..makes. calm me down

d  |---------5--------------------4----|
a  |-------------5------------4--------|
F#|------5---------------4-------------|
D |------------------------------------|
A |------------------------------------|
D |---5--------------4-----------------|

and the last part:

d  |---9---5---0---7-----------------------|
a  |---9---5---0---7-----------------------|
F#|---8---5---0---7------------------------|
D |---9---5---0---7------------------------|
A |---9---5---0---7------------------------|
D |---9---5---0---7------------------------|
Oh.........................................................
Tap to rate this tab
# A B C D E F G H I J K L M N O P Q R S T U V W X Y Z