Song name
# A B C D E F G H I J K L M N O P Q R S T U V W X Y Z

Alt-j - Breezeblocks tab

This is my first tab. I used the audio files they put up for any producer to use to make
a remix, as well as some of their live performances. I am almost 100% sure this is
correct and THIS IS HOW THEY ACTUALLY PLAY IT.

****I dont know proper tab notation for things like slapping the strings to mute so
Ill just use an s where needed. Comment if you can help or just have something you think
is wrong so I can maybe fix it! Be sure to listen to the song to get the timing down.

Hope you guys like it!

****This is Joes (the singer) guitar part

low E tuned to D


(let it ring)
e|---------5s--------8-s---10s--10-------------------------------|
B|---------------------------------------------------------------|
G|---------------------------------------------------------------| x4
D|---------------------------------------------------------------|
A|---------------------------------------------------------------|
D|---------3s--3-3/7-7-s--7-0s-7-0---0000------------------------|

Chorus: **IMPORTANT: he kind of bars this part so he will occasionally strum and hit the
D AND A string on the same fret(so for example 3 on D AND A but the A is very soft).
The times he does hit the A string it seems to be on accident so I wont make a point of 
when it happens in the recording, just do what he does and let it happen when it happens!
e|-------------------------------------------------------------------|
B|-------------------------------------------------------------------|
G|-------------------------------------------------------------------|
D|----------------------------------x3-------------------------------|
A|-------------------------------------------------------------------|
D|-33333333777777770000000233333333-----3333333377777777000000223--3-|


e|---------5s--------8-s---10s--10-------------------------------|
B|---------------------------------------------------------------|
G|---------------------------------------------------------------| x3
D|---------------------------------------------------------------|
A|---------------------------------------------------------------|
D|---------3s--3-3/7-7-s--7-0s-7-0---0000------------------------|

e|---------5s-------8-s---10s-----------------------------------|
B|--------------------------------------------------------------|
G|--------------------------------------------------------------|
D|--------------------------------------------------------------|
A|--------------------------------------------------------------|
D|---------3s3-3/7-7-s--7-0s-------0000------------------------|

Chorus:
e|-------------------------------------------------------------------|
B|-------------------------------------------------------------------|
G|-------------------------------------------------------------------|
D|----------------------------------x3-------------------------------|
A|-------------------------------------------------------------------|
D|-33333333777777770000000233333333-----3333333377777777000000223--3-|


e|---------5s--------8-s---10s--10-------------------------------|
B|---------------------------------------------------------------|
G|---------------------------------------------------------------|
D|---------------------------------------------------------------|
A|---------------------------------------------------------------|
D|---------3s--3-3/7-7-s--7-0s-7-0---0000------------------------|

e|---------5s-------8-s---10-------------------------------------|
B|---------------------------------------------------------------|
G|---------------------------------------------------------------|
D|---------------------------------------------------------------|
A|---------------------------------------------------------------|
D|---------3s-3-3/7-7-s--7-0-----------5\3-----------------------|


(build up as you go through each time on these)
e|---------------------------------------------------------------|
B|---------------------------------------------------------------|
G|---------------------------------------------------------------|
D|--00000003777377773333333333333333-----------------------------|
A|------------------3333333333333333-----------------------------|
D|---------------------------------------------------------------|

e|---------------------------------------------------------------|
B|---------------------------------------------------------------|
G|--------------------------33333333-----------------------------| x2
D|--00000003777377773333333333333333-----------------------------|
A|------------------3333333333333333-----------------------------|
D|---------------------------------------------------------------|
(On this one I hear him play the 2 on the G but maybe you guys ca help me out on that,
its quiet but builds up a little)
e|---------------------------------------------------------------|
B|---------------------------------------------------------------|
G|--2222222-------------------333333-----------------------------|
D|--00000003777377773333333333333333-----------------------------|
A|------------------3333333333333333-----------------------------|
D|---------------------------------------------------------------|
(the 2 is VERY quiet on this one and the 3 on the G is also very quiet but builds up
ever so slightly)
e|---------------------------------------------------------------|
B|---------------------------------------------------------------|
G|--2222222-----------------33333333-----------------------------|
D|--00000003777377773333333333333333-----------------------------|
A|------------------3333333333333333-----------------------------|
D|---------------------------------------------------------------|

(on this part you want to strum the D very hard but ease up a lot as you hit those other
2 strings, so the & on the D is played very soft)
**IMPORTANT: he does the same as before and bars them, occasionally hitting the A)
e|----------------------------------------------------------------|
B|----------------------------------------------------------------|
G|----------------------------------------------------------------|
D|-3333333377777777-----------------------------------------------|
A|-3333333377777777-----------------------------------------------|
D|-33333333777777770000000233333333-------------------------------|

e|-------------------------------------------------------|
B|-------------------------------------------------------|
G|-------------------------------------------------------|
D|----------------------------------x7-------------------|
A|-------------------------------------------------------|
D|-33333333777777770000000233333333---3-3/7-----7\0------|

****The last slide down to 0 is not actually part of Joes part, I personally play it to
match the last note in the song, but THE ACTUALLY RECORDING FOR JOES PART DOES NOT
HAVE THE LAST
Tap to rate this tab
# A B C D E F G H I J K L M N O P Q R S T U V W X Y Z