Song name
# A B C D E F G H I J K L M N O P Q R S T U V W X Y Z

Alt-j - Taro tab

Taro    -     Alt-j
Tunning DADGBE

INTRO
E|---------14-------10------------------------------------------|
B|-----12--------10--------7-----8------------------------------|
G|--14--------11---------7-----6-------4-----4------7-----6-----|
D|---------------------9-----7-------5-----5------9-----7-------|
A|---------------------------------7-----5----------------------|
D|---------------------------------------------9------7---------|
VERSE/CHORUS
E|--------------------------------------------------------------|
B|------6-----5-------------------------------------------------|
G|----7-----5---------3------2----------------------------------|x3
D|------------------5------3------------------------------------|
A|--5-----3-----------------------------------------------------|
D|---------------5-------3--------------------------------------|

baseline with cellos or smthg then again VERSE/CHORUS x3

SORT OF TRANSITION
e|--------------------------------------------------------------|
B|--------------------3-------1---------------------------------|
G|----0-------0-----3---3---2---2-------------------------------|
D|--1---1---1---1-5-------3-------------------------------------|
A|3-------1-----------------------------------------------------|
E|--------------------------------------------------------------|

again VERSE/CHORUS x2

COOLEST BRIDGE EVER
This part is kinda tricky, to get the sound exactly as the one in the song
you'll need a little tape, not a piece, I mean the whole tape. Use it as a
pick and kind of make a tapping with it. I know it's weird but sounds great.

If you don't want to take yourself too far you can get almost the same sound
tapping with your pick really gently.

E|-----15t1315t1315t13-15t1315t1315t13-15t1315t1315t1315t13---------------|
B|15t10----------------------------------------------------15t1015t1015t10|
G|------------------------------------------------------------------------|x4
D|------------------------------------------------------------------------|
A|------------------------------------------------------------------------|
D|------------------------------------------------------------------------|

VERSE/CHORUSx3 KIND OF TRANSITIONx1
VERSE/CHORUSx4 KIND OF TRANSITIONx1
VERSE/CHORUSx2 KIND OF TRANSITIONx1
COOLEST BRIDGE EVERx5

KIND OF A BREAKDOWN
E|--------------------------------------------------------------|
B|--------------------------------------------------------------|
G|--------------------------------------------------------------|
D|--------------------------------------------------------------|
A|--------------------------------------------------------------|
D|--0--0-3-3/12-12-12-3-5-5-3-7-3-3-----------------------------|

COOLEST BRIDGE EVER too many times, then baseline of verse Dm C Gm F

The othe guitar keeps the VERSE/CHORUS with the KIND OF TRANSITION parts
alongside the COOLEST BRIDGE EVER.


You can get the exact sound of this song by tunning your pedal with less than half of 
gain, bases in the middle, trebles in the middle some chorus, and delay. Not even near to 
rocket science.
Hope you like the tab, if I got something wrong post it on comments, if you have 
something to add or delete, post it in comments.

Keep metal alive, but also the good shit, like this kind of songs. lml
Tap to rate this tab
 
# A B C D E F G H I J K L M N O P Q R S T U V W X Y Z