Song name
# A B C D E F G H I J K L M N O P Q R S T U V W X Y Z

Alt-j - Breezeblocks tab

ORiginally contributed by Seva5307.  changed the tuning on the high e back to e.
Slap the strings where you see an "x"

Low E string tuned down to D.


(let it ring)
e |---------5x-------8--x---10x--10-------------------------------|
B |---------------------------------------------------------------|
F#|---------------------------------------------------------------| x4
D |---------------------------------------------------------------|
A |---------------------------------------------------------------|
D |---------3x--3-3/7-7-x--7-0x-7-0---0000------------------------|

A sting light on the chorus:

e|---------------------------------------------------------------------|
B|---------------------------------------------------------------------|
G|---------------------------------------------------------------------|
D|----------------------------------(x3)-------------------------------|
A|-33333333777777770000000233333333-------3333333377777777000000223--3-|
D|-33333333777777770000000233333333-------3333333377777777000000223--3-|


e|---------5x-------8--x---10x--10-------------------------------|
B|---------------------------------------------------------------|
G|---------------------------------------------------------------| x3
D|---------------------------------------------------------------|
A|---------------------------------------------------------------|
D|---------3x--3-3/7-7-x--7-0x-7-0---0000------------------------|

D|---------7x------10-x---12x-----------------------------------|
B|--------------------------------------------------------------|
G|--------------------------------------------------------------|
D|--------------------------------------------------------------|
A|--------------------------------------------------------------|
D|---------3x-3-3/7-7-x--7-0x-------0000------------------------|

Chorus:
e|---------------------------------------------------------------------|
B|---------------------------------------------------------------------|
G|---------------------------------------------------------------------|
D|----------------------------------(x3)-------------------------------|
A|-33333333777777770000000233333333-------3333333377777777000000223--3-|
D|-33333333777777770000000233333333-------3333333377777777000000223--3-|


e|---------5x-------8--x---10x--10-------------------------------|
B|---------------------------------------------------------------|
G|---------------------------------------------------------------|
D|---------------------------------------------------------------|
A|---------------------------------------------------------------|
D|---------3x--3-3/7-7-x--7-0x-7-0---0000------------------------|

e|---------5x------8--x---10-------------------------------------|
B|---------------------------------------------------------------|
G|---------------------------------------------------------------|
D|---------------------------------------------------------------|
A|---------------------------------------------------------------|
D|---------3x-3-3/7-7-x--7-0-----------5\3-----------------------|

Tap to rate this tab
# A B C D E F G H I J K L M N O P Q R S T U V W X Y Z