Song name
# A B C D E F G H I J K L M N O P Q R S T U V W X Y Z

Alt-j - Something Good tab

Something Good - Alt-J


Standard Tuning


Intro  

e|------------------------------2-------|
B|----0---0---0---0---0---0---0--3p2p0--|
G|--------------------------------------|
D|--------------------------------------|
A|--2--22---2--22---2--22---2-----------|
E|--------------------------------------|

e|--------------------------------------|
B|----0---0---0---0---0---0--0---0------|
G|--------------------------------------|
D|--------------------------------------|
A|--------------------------------------|
E|--3--33---3--33---3--33---3--33-------|  x2


(0:23)

e|--------------------------------------|
B|----0--0-----0--0-----0--0-----0--0---|
G|--------------------------------------|
D|--2--22----0--00----------------------|
A|-----------------------------2--22----|
E|--------------------3--33-------------| x4




(0:40)  Piano Arranged for Guitar

e|----------17-14--------------------15p14----------|
B|-----15---------15----15------15---------15----15-|
G|---16--16----------16-------16--16----------16----|
D|--------------------------------------------------|
A|--------------------------------------------------|
E|--------------------------------------------------|



(0:40) Guitar played during piano riff



e|----0---0---0---0---0---0---0---0-----|
B|----0---0---0---0---0---0---0---0-----|
G|----0-------0-------0-------0---------|
D|--------------------------------------|
A|--2---2---2---2---2---2---2---2-------|
E|--------------------------------------|




(0:48)  Chorus

e|-----0----0------0----0----0---0----0----0---|
B|-----3----0------1----1----1---1p0--1----1---|
G|-----0----0------0----0----0---0----0----0---|
D|-------------0h2----2------------------------|
A|--2----2-----0h3----3----2---2--------2------|
E|--0----0-----------------3---3--------3------| x4
 


(1:06)

e|--------------------------------------|
B|----0--0-----0--0-----0--0-----0--0---|
G|--------------------------------------|
D|--2--22----0--00----------------------|
A|-----------------------------2--22----|
E|--------------------3--33-------------| x4



(1:23) Guitar played over piano

e|---7-----10--7----3---2---0-----------|
B|---7-----7---7----3---3---0-----------|
G|---7-----7---7------------------------|
D|---9-----9---9------------------------|
A|--------------------------------------|
E|--------------------------------------|



(1:32) Chorus

e|-----0----0------0----0----0---0----0----0---|
B|-----0----0------1----1----1---1p0--1----1---|
G|-----0----0------0----0----0---0----0----0---|
D|-------------0h2----2------------------------|
A|--2----2-----0h3----3----2---2--------2------|
E|--0----0-----------------3---3--------3------| x4



(1:51)

e|------------------------------2-------|
B|----0---0---0---0---0---0---0--3p0----|
G|--------------------------------------|
D|--------------------------------------|
A|--2--22---2--22---2--22---2-----------|
E|--------------------------------------|

e|--------------------------------------|
B|----0---0---0---0---0---0---0--0------|
G|--------------------------------------|
D|--------------------------------------|
A|--2--22---2--22---2--22---2--22-------|
E|--------------------------------------| x2



(2:07)

e|--------------------------------------|
B|----0--0-----0--0-----0--0-----0--0---|
G|--------------------------------------|
D|--2--22----0--00----------------------|
A|-----------------------------2--22----|
E|--------------------3--33-------------| 

e|--------------------------------------|
B|----0--0-----0--0-----0--0-----0--0---|
G|--------------------------------------|
D|--2--22----0--00----------------------|
A|--------------------------------------|
E|--------------------3--33----2--22----| x2



(2:25)

e|------0h2-3-----0h2-3-----0h2-3-----0h2-3---|
B|--------------------------------------------|
G|--------------------------------------------|
D|--------------------------------------------|
A|--0-2-------0-2-------0-2-------0-2---------|
E|--------------------------------------------|



(2:34) Chorus

e|-----0----0------0----0----0---0----0----0---|
B|-----0----0------1----1----1---1p0--1----1---|
G|-----0----0------0----0----0---0----0----0---|
D|-------------0h2----2------------------------|
A|--2----2-----0h3----3----2---2--------2------|
E|--0----0-----------------3---3--------3------| x8


(3:09) Outro

e|--------------------------------------|
B|----0--0-----0--0-----0--0-----0--0---|
G|--------------------------------------|
D|--2--22----0--00----------------------|
A|-----------------------------2--22----|
E|--------------------3--33-------------| x3

(3:23) 

e|--------------------------------------|
B|--------------------------------------|
G|---2------0---------------------------|
D|--------------------------------------|
A|--------------------------2-----------|
E|-------------------3------------0-----|




************************************

| /   slide up
| \   slide down
| h   hammer-on
| p   pull-off
| ~   vibrato
| +   harmonic
| x   Mute note
| b   Bend
| pb  Pre-bend
| br  Bend release
| pbr Pre-bend release
| brb Bend release bend

************************************
Tap to rate this tab
# A B C D E F G H I J K L M N O P Q R S T U V W X Y Z