Song name
# A B C D E F G H I J K L M N O P Q R S T U V W X Y Z

Alt-j - Breezblocks tab

CAPO 5

TUNING- Drop D (DADGBe)

Chords (with capo):

C - x 3 2 0 1 0
C/B - x 2 2 0 1 3
Am -  x 12 12 10 10 10 OR 02210

Intro 

C   C/B    Am     Am   
(For the 'La la la la' play an open A string four times with the capo)

Verse 1
C                   C/B
She may contain the urge to run away
              Am                                      (open A sting x4)
 But hold her down with soggy clothes and breezeblocks
 C               C/B
 Cetirizine your fever's gripped me again
       Am                                       (open A sting x4) 
 Never kisses—all you ever send are full stops, la, la, la
 
Verse 2
(Like verse 1)

Do you know where the wild things go?
 They go along to take your honey, la, la, la
 Break down, now weep,
 Build up breakfast, now let's eat
 My love, my love, love, love, la, la, la
 
Chorus
 
 Muscle..........and toe.......this fear......me..here..........
e|----------------------------------------------------------------|
B|----------------------------------------------------------------|
G|----------------------------------------------------------------|  x2
D|----------------------------------------------------------------|
A|-2-2-2-2-2-2-2-2/7-7-7-7-7-7-7-7\0-0-0-0-0-0-2-2/3-3-3-3-3-3-3-3|
E|----------------------------------------------------------------|

Muscle to muscle and toe to toe
 The fear has gripped me but here I go
 My heart sinks as I jump up
 Your hand grips hand as my eyes shut
 
Verse 3
(Like Verse 1)

Do you know where the wild things go?
 They go along to take your honey, la, la, la
 Break down, now sleep
 Build up breakfast, now let's eat
 My love my love, love, love
 
Verse 4
(Like Verse 1)

She bruises, coughs, she splutters pistol shots
 Hold her down with soggy clothes and breezeblocks
 She's morphine, queen of my vaccine
 My love, my love, love, love, la, la, la
 
Chorus
(Like first Chorus)

Muscle to muscle and toe to toe
 The fear has gripped me but here I go
 My heart sinks as I jump up
 Your hand grips hand as my eyes shut

Verse 5
(Play chords once but still add in open A string)

She may contain the urge to run away
 But hold her down with soggy clothes and breezeblocks
 Germolene, disinfect the scene
 My love, my love, love, love
 But please don't go, I love you so, my lovely
 
Outro

(In time with vocal lyrics)
e|---------------------------------------------------|
B|---------------------------------------------------|
G|---------------------------------------------------|
D|---------------------------------------------------|
A|--------------------------12-12-12----12-12-12-----|
E|-12-12-12-10-12-12-12--15----------13--------------|

e|---------------------------------------------|
B|---------------------------------------------|
G|---------------------------------------------|
D|---------------------------------------------|
A|-------------------------13-13-13-13\12-12-12|
E|-13-13-13-13-13-13-13-13---------------------|

Please don't go, please don't go
 I love you so, I love you so
 Please don't go, please don't go
 I love you so, I love you so
 Please break my heart, hey
 
Please don't go, please don't go
 I love you so, I love you so
 Please don't go, please don't go
 I love you so, I love you so
 Please break my heart
 
Please don't go, I'll eat you whole
 I love you so, I love you so, I love you so
 Please don't go I'll eat you whole
 I love you so, I love you so, I love you so, I love you so
 
I'll eat you whole
 I love you so, I love you so
 I'll eat you whole
 I love you so, I love you so
 
I'll eat you whole
 I love you so, I love you so
 Please don't go, I'll eat you whole
 I love you so, I love you so, I love you so
 Please don't go, I'll eat you whole
 I love you so, I love you so, I love you so 
Tap to rate this tab
 
# A B C D E F G H I J K L M N O P Q R S T U V W X Y Z