Song name
# A B C D E F G H I J K L M N O P Q R S T U V W X Y Z

Altar Of Plagues - Earth As A Womb tab

http://www.myspace.com/altarofplagues

-----------------------------------------------------------------------------
		    Altar of Plagues - Earth: As a Womb
-----------------------------------------------------------------------------
Tabbed by: cmflesh
Email: N/A

* Here's the riffs only. I was too lazy to add the tremolo picking or the song
structure, so that you have to listen for yourself. Some of these riffs
require another guitar on the back (in example; riff 8) and even a third guitar
(leads) but I arranged this song to be playable on 1 guitar and still sounding 
almost perfect.

Dropped C tuning


Beginning:
D|--------------------------------------------------------------------------|
A|--------------------------------------------------------------------------|
F|----7---------------------------------------------------------------------|
C|-0------------------------------------------------------------------------|
G|-5------------------------------------------------------------------------|
C|--------------------------------------------------------------------------|


Intro:
|---------------------------------------------------------------------------|
|---------------------------------------------------------------------------|
|----7----------------7----------------------------------7------------------|
|-0----------------0----------------0----------------0----------------------|
|-5----------------5----------------5----------------5----------------------|
|-0----------------3----------------5----------------0----------------------|


Riff 1
|---------------------------------------------------------------------------|
|---------------------------------------------------------------------------|
|---------------------------------------------------------------------------|
|-0----------------0----------------0---------------------------------------|
|-8----------------7----------------5---------------------------------------|
|-0----------------0----------------0---------------------------------------|

|---------------------------------------------------------------------------|
|---------------------------------------------------------------------------|
|---------------------------------------------------------------------------|
|-3----------------5----------------2----------------3----------------------|
|-3----------------3----------------3----------------3----------------------|
|-3----------------3----------------3----------------3----------------------|


Riff 2
|---------------------------------------------------------------------------|
|---------------------------------------------------------------------------|
|---------------------------------------------------------------------------|
|-0---------------------------------0---------------------------------------|
|-5---------------------------------3---------------------------------------|
|---------------------------------------------------------------------------|


Riff 3
|---------------------------------------------------------------------------|
|---------------------------------------------------------------------------|
|-9---------------------9-----9-----9---------------------------9-----9-----|
|-7---------------------7-----5-----7---------------------------7-----5-----|
|-0---------------------0-----0-----0---------------------------0-----0-----|
|---------------------------------------------------------------------------|


Riff 4
|---------------------------------------------------------------------------|
|---------------------------------------------------------------------------|
|---------------------------------------------------------------------------|
|-0---------------------8----------------------5----------------3-----5-----|
|-0---------------------8----------------------5----------------3-----5-----|
|-0---------------------8----------------------5----------------3-----5-----|


Riff 5
|---------------------------------------------------------------------------|
|---------------------------------------------------------------------------|
|-9---------------------9----------------------9----------------------------|
|-7---------------------7----------------------7----------------------------|
|-0---------------------8----------------------5----------------------------|
|---------------------------------------------------------------------------|

The acoustic part starts with strumming this:
Riff 6
|(0)------------------------------------------------------------------------|
|(0)------------------------------------------------------------------------|
|-9-------------------------------------------------------------------------|
|-7-------------------------------------------------------------------------|
|-0-------------------------------------------------------------------------|
|---------------------------------------------------------------------------|

Riff 7
|-0---------------------0----------------------0-----------------0----------|
|-10--------------------5----------------------6-----------------6----------|
|-9---------------------4----------------------5-----------------5----------|
|-7---------------------2----------------------3-----------------3----------|
|-0---------------------0----------------------0-----------------3----------|
|----------------------------------------------------------------3----------|


Break (at 09:18) 
|---------------------------------------------------------------------------|
|---------------------------------------------------------------------------|
|-12-------------------------------------------------------------------9----|
|-10-------------------------------------------------------------------10---|
|-8--------------------------------------------------------------------8----|
|---------------------------------------------------------------------------|


Riff 8
|---------------------------------------------------------------------------|
|---------------------------------------------------------------------------|
|-9------9---12--9---9------9---12--9---12----------12-------------12---9---|
|-10-----10--10--7---10-----10--10--7---10----------10--------10---10---7---|
|-0------0---0---0---0------0---0---0---10----------10--------10---10---0---|
|---------------------------------------------------10--------10------------|


Riff 9 (used to the end, with distortion and acoustic)
|---------------------------------------------------------------------------|
|---------------------------------------------------------------------------|
|---------------------------------------------------------------------------|
|-5--------------------------------------------0---------------0-----0------|
|-3--------------------------------------------7---------------8-----7------|
|-5--------------------------------------------0---------------0-----0------|
Tap to rate this tab
# A B C D E F G H I J K L M N O P Q R S T U V W X Y Z