Song name
# A B C D E F G H I J K L M N O P Q R S T U V W X Y Z

Altaria - Unchain The Rain tab

I finally managed to get this tabbed
The rest of the song has a very keyboard and bassy sound so you cant hear alot of guitar 
just play about with power chords until you figure it out.

I'm working on the solo


(sl)= slide
~ held note

e|-------------------------------------------|
B|-------------------------------------------|
G|-9-7-5-4-5-7-10-9-5~--5(sl)9-7-5-7-9-12-9~-|
D|-------------------------------------------|
A|-------------------------------------------|
E|-------------------------------------------|

e|------------------------------------------|
B|------------------------------------------|
G|-9-7-5-4-5-7-10-9-5~--5(sl)9-7-5-4---4-2~-|
D|-----------------------------------5------|
A|------------------------------------------|
E|------------------------------------------|


At the end of the song, you play the same riff just higher

e|----------------------------------------------------|
B|----------------------------------------------------|
G|-12-10-8-7-8-10-13-12-8~--8(sl)12-10-8-10-12-15-12~-|
D|----------------------------------------------------|
A|----------------------------------------------------|
E|----------------------------------------------------|

e|----------------------------------------------------|
B|----------------------------------------------------|
G|-12-10-8-7-8-10-13-12-8~--8(sl)12-10-8-7---7-5~-----|
D|-----------------------------------------8----------|
A|----------------------------------------------------|
E|----------------------------------------------------|

Thanks
Some_thing_wild
Jamieh2412@hotmail.co.uk
Tap to rate this tab
 
# A B C D E F G H I J K L M N O P Q R S T U V W X Y Z