Song name
# A B C D E F G H I J K L M N O P Q R S T U V W X Y Z

Altarmotive - Please Resolve This tab

-------------------------------------------------------------------------------
                     Please resolve this - Altarmotive
-------------------------------------------------------------------------------
official website: http://www.altarmotive.com/main.htm
tabbed by:hankook127
Guitar 1(clean)
e|-----------3--2--0--5--------------3--2--0--5---|
B|--------3-----------------------3---------------|
G|-2h4p2-------------------2h4p2------------------|
D|------------------------------------------------|
A|------------------------------------------------|
E|------------------------------------------------|

Guitar 1(clean)
e|-----------3--2--0--5--------------3--2--0--5---|
B|--------3-----------------------3---------------|
G|-2h4p2-------------------2h4p2------------------|
D|------------------------------------------------|
A|------------------------------------------------|
E|------------------------------------------------|

Guitar 2(distortion)
e|-------------------|
B|-------------------|
G|-77777777----------|
D|-77777777-77777777-|
A|-55555555-77777777-|
E|----------55555555-|

Guitar 1(clean)
e|-----------3--2--0--5--------------3--2--0--------------|
B|--------3-----------------------3----------3h5p3-----3--|
G|-2h4p2-------------------2h4p2--------------------2-----|
D|--------------------------------------------------------|
A|--------------------------------------------------------|
E|--------------------------------------------------------|

Guitar 2(distortion)
e|----------------------|
B|----------------------|
G|------------77777777--|
D|-22222222-4-77777777--|
A|-22222222-4-55555555--|
E|-00000000-2-----------|

This is my very first tab I have ever uploaded onto the net so please rate fairly - Any 
or questions send all mail to:yves_luc@hotmail.com

Enjoy!
Tap to rate this tab
# A B C D E F G H I J K L M N O P Q R S T U V W X Y Z