Guitaretab - guitar tabs
Song name
# A B C D E F G H I J K L M N O P Q R S T U V W X Y Z

Alter Bridge - Open Your Eyes tab

---------------------------------------------------------------------------
Open your eyes  Get Cape Wear Cape Fly : Intro
---------------------------------------------------------------------------

Tabbed by: Huw
Tuning: Standard

e--------------------------------------------------|  
B--------------------------------------------------|
G---3----------3------------3----------3-----------|
D-------3----------3------------3----------3-------|
A-------------------------6---6-----6-6---6----6\3-|
E-3---3------3---3---3-3---------------------------| x2

[ Tab from: http://www.guitaretab.com/a/alter-bridge/131722.html ]
e---------------------------------------------------------|
B-------------------------------3---------3-4--3----------|
G-----3--2--3--2--3--5-3-2----------3------------3--------|
D--------------------------3----------3------------3------|
A-----------------------------6---6-----6-----------------|
E--3------------------------------------------------------|


You could add in the third fret note on the Low E string in between each note in as shown below.

e----------------------------------------|
B----------------------------------------|
G-----3---2---3---2---3---5---3-2--------|
D---------------------------------3------|
A----------------------------------------|
E--3----3---3---3---3--------------------|

Let me know what you think ? 

It sounds pretty similar to me.

I will add the full tab later.

Enjoy
Related for Open Your Eyes tab