Guitaretab - guitar tabs
Song name
# A B C D E F G H I J K L M N O P Q R S T U V W X Y Z

Alter Bridge - Ties That Bind tab

Ties That Bind - Alter Bridge
mark-tremonti.com and alterbridgeband.net
Tabbed by: Reuben
Email:rubes_intheleast88@hotmail.com


Enjoy. :)

Tuning:DGCFAD (standard 1 step down)
Time sig:12/8

Intro
Gtr1 (slight dist)
d|------------------------|------------------------|
a|------------------------|------------------------|
f|------------------------|------------------------|
C|------------------------|------------------------|
G|-------3---0-------0---0|------3---2-------0---2-|
D|-1-1-1-------1-1-1------|0-0-0-------0-0-0-------|

Gtr1
d|------------------------|------------------------|
a|------------------------|------------------------|
f|------------------------|------------------------|
c|-------0----------------|------------------------|
G|-----------0-------0---0|------3---0-------0---0-|
D|-3-3-3-------3-3-3------|1-1-1-------1-1-1-------|

Gtr1
d|------------------------|------------------------|
a|------------------------|------------------------|
f|------------------------|------0-----------------|
C|------------------------|----------0-------0---0-|
G|-------3---0-------0---0|3-3-3-------3-3-3-------|
D|-1-1-1-------1-1-1------|------------------------|

Gtr1          (let ring)
d|------------------------|------------------------|
a|------------------------|------------------------|
f|-----------4-----------4|----------5-------4---0-|
C|-------2-----------2----|------2-----------------|
G|-0-0-0-------0-0-0------|0-0-0-------0-0-0-------|
D|------------------------|------------------------|


Gtr1
d|------------------------|------------------------|
a|------------------------|------------------------|
f|------------------------|------------------------|
C|------------------------|------------------------|
G|-------3---0-------0---0|------3---2-------0---2-|
D|-1-1-1-------1-1-1------|0-0-0-------0-0-0-------|

Gtr1
d|------------------------|------------------------|
a|------------------------|------------------------|
f|------------------------|------------------------|
C|-------0----------------|------------------------|
G|-----------0-------0---0|------3---0-------0---0-|
D|-3-3-3-------3-3-3------|1-1-1-------1-1-1-------|


Gtr1
d|------------------------|------------------------|
a|------------------------|------------------------|
f|------------------------|------------------------|
C|------------------------|------------------------|
G|-------0---0-------0---0|------0---0-------0---0-|
D|-1-1-1-------1-1-1------|3-3-3-------3-3-3-------|
Gtr2 (dist)
 *w/ wah
d|-------------------0---0|------------------0---0-|
a|-------10--10--10-------|------10--10--10--------|
f|-101010------10--10-----|121212------12--12------|
C|------------------------|------------------------|
G|------------------------|------------------------|
D|------------------------|------------------------|


Gtr1
d|------------------------|------------------------|
a|------------------------|------------------------|
f|------------------------|------------------------|
C|------------------------|------------------------|
G|-0-0-0-0---0-0-0-0-0---0|0-0-0-0---0-0-0-0-0-0-0-|
D|------------------------|------------------------|
Gtr2 
d|-------------------0----|------------------0-----|
a|-------12--12--12------12------12--12--12----12--|
f|-141414------14--14-----|141414------14--14----14|
C|------------------------|------------------------|
G|------------------------|------------------------|
D|------------------------|------------------------|


________
Preverse|
________|

This part really isn't as complicated as some people may think.

  _________________________________________________________________
 |**The ^'s over some of the notes indicate accented *upstrokes  **|
 |**between palm-muted notes. These accented notes are all that  **|
 |**other tabs of this song included (which did not include the  **|
 |**palm-muted notes between them). When you slow it down to half**|
 |**speed, you are able to hear that there is a note played for  **|
 |**        every sixteenth value within in this riff            **|
 |-----------------------------------------------------------------|
Gtr1(dist){Rhythm figure 1}
   PM...|  PM...|  PM      ^       PM...|  PM
d|------------------------|------------------------|
a|------------------------|------------------------|
f|------------------------|------------------------|
C|------------------------|------------------------|
G|-------5-------^---^----|------5-------^---8-7-5-|
D|-0-1-0---0-0-0-0-0-0-1-0|0-1-0---0-0-0-0-0-------|


Gtr1
   ^       PM...|  PM      ^       PM.|   
d|------------------------|------------------------|
a|------------------------|------------------------|
f|------------------------|----------------7-----8-|
C|------------------------|--------------6-----7---|
G|-------5-------^---^----|------5-----5-----6-----|
D|-0-1-0---0-0-0-0-0-0-1-0|0-1-0---0-0-------------|


Gtr1
   PM...|  PM...|  PM      ^       PM...|  PM
d|------------------------|------------------------|
a|------------------------|------------------------|
f|------------------------|------------------------|
C|------------------------|------------------------|
G|-------5-------^---^----|------5-------^---8-7-5-|
D|-0-1-0---0-0-0-0-0-0-1-0|0-1-0---0-0-0-0-0-------|


Gtr1
   ^       PM...|  PM      ^             {Rhythm Figure 1 end}
d|------------------------|------------------------|
a|------------------------|------------------------|
f|------------------------|-----------------*1.7---|
C|------------------------|------------------------|
G|-------5-------^---^----|------5-----------------|
D|-0-1-0---0-0-0-0-0-0-1-0|0-1-0-------------------|



______
Verse1|
______|

   "I tear on the leash  that  keeps me contained and 
Gtr1 {Rhythm Fig 2}
   PM...|  PM...|  PM  PM.......|  PM...|  PM
d|------------------------|------------------------|
a|------------------------|------------------------|
f|------------------------|------------------------|
C|------------------------|------------------------|
G|-------5-------^---^----|------5-------^---8-7-5-|
D|-0-1-0---0-0-0-0-0-0-0-0|0-1-0---0-0-0-0-0-------|


Controlled                  Let   me   go"
Gtr1
   PM...|  PM...|  PM  PM.......|  PM...|  PM
d|------------------------|------------------------|
a|------------------------|------------------------|
f|------------------------|------------------------|
C|------------------------|------------------------|
G|-------5-------^---^----|------5-------^---2-3-5-|
D|-0-1-0---0-0-0-0-0-0-0-0|0-1-0---0-0-0-0-0-------|


"..wanna break free  and bite  my  way  out  of  this 
Gtr1
   PM...|  PM...|  PM  PM.......|  PM...|  PM
d|------------------------|------------------------|
a|------------------------|------------------------|
f|------------------------|------------------------|
C|------------------------|------------------------|
G|-------5-------^---^----|------5-------^---8-7-5-|
D|-0-1-0---0-0-0-0-0-0-0-0|0-1-0---0-0-0-0-0-------|


  hole"                                  "One last 
Gtr1                                    {Rhythm Fig 2 end}
   PM...|  PM...|  PM  PM...|  PM  
d|------------------------|------------------------|
a|------------------------|------------------------|
f|------------------------|------------7-5-4-------|
C|------------------------|------------------7-5-4-|
G|-------5-------^---^----|--^---^-----------------|
D|-0-1-0---0-0-0-0-0-0-0-0|0-0-0-0-0-0-------------|
Gtr2 
d|------------------------|------------------------|
a|------------------------|------------------------|
f|------------------------|------------------------|
C|------------------------|------------------------|
G|------------------------|-------------x\\\\\\\---|
D|------------------------|-------------x\\\\\\\\--|


______
Chorus|
______|

hope..."             "To   rise    and break     away
know..."             "The  risk    is worth   the gain
Gtr1&2{Rhythm Fig3}
d|------------------------|------------------------|
a|.1-----------1---1------|------------------------|
f|-2-----------2---2------|4-----------4---4-----4-|
C|-3-----------3---3------|2-----------2---2-----2-|
G|.3-----------3---3------|2-----------2---2-----2-|
D|-1-----------1---1------|0-----------0---0-----0-|

                 Above the fading     line"
                  It's worth the sacrifice"
Gtr1&2
d|------------------------|------------------------|
a|-3-----------3---3-----3|1---1-------1---1-----1-|
f|-4-----------4---4-----4|2---2-------2---2-----2-|
C|-5-----------5---5-----5|3---3-------3---3-----3-|
G|-5-----------5---5-----5|3---3-------3---3-----3-|
D|-3-----------3---3-----3|1---1-------1---1-----1-|

   "WAaay                beyond   the ties   that bind"
Gtr1&2
d|------------------------|------------------------|
a|-1---------1-1---1-----1|3-----------3---3-------|
f|-2---------2-2---2-----2|5-----------5---5-------|
C|-3---------3-3---3-----3|5-----------5---5-5-----|
G|-3---------3-3---3-----3|3-----------3---3-5-----|
D|-1---------1-1---1-----1|3-----------3---3-3-----|

                                       "This   I
                          ________________________
Gtr1&2                         1.                 |
d|-0-----0---0-0-0--------|------------------------|
a|-0-----0---0-0-0--------|-----------------------.|
f|-4-----4---4-4-4--------|5-4-2-------------------|
C|-2-----2---2-2-2--------|------5-4-2-------------|
G|-0-----0---0-0-0--------|------------5-3-2------.|
D|------------------------|------------------5-3-0-|
                                      {Rhythm Fig 3 end}
                          ___________________________
                        Gtr1&2  2.                   |
                         d|---------------------------|
                         a|-4h5p4--4------------------|
                         f|------7---5-7-3h5p3--3-----|
                         C|-------------------7---5-7-|
                         G|---------------------------|
                         D|---------------------------|


Preverse
{Gtr1 w/ Rhythm fig1}

_______
Verse 2|
_______|

"I run  but  the  chains   Pull me right back to the 
Gtr1
   PM...|  PM...|  PM  PM.......|  PM...|  PM
d|------------------------|------------------------|
a|------------------------|------------------------|
f|------------------------|------------------------|
C|------------------------|------------------------|
G|-------5-------^---^----|------5-------^---8-7-5-|
D|-0-1-0---0-0-0-0-0-0-0-0|0-1-0---0-0-0-0-0-------|
Gtr2
d|-0-0-0-0-0-0-0-0-0-0-0-0|0-0-0-0-0-0-0-0-0-0-0-0-|
a|------------------------|------------------------|
f|------------------------|------------------------|
C|------------------------|------------------------|
G|------------------------|------------------------|
D|------------------------|------------------------|

floor.."                  "You   control...
Gtr1
   PM...|  PM...|  PM  PM.......|  PM...|  PM
d|------------------------|------------------------|
a|------------------------|------------------------|
f|------------------------|------------------------|
C|------------------------|------------------------|
G|-------5-------^---^----|------5-------^---2-3-5-|
D|-0-1-0---0-0-0-0-0-0-0-0|0-1-0---0-0-0-0-0-------|
Gtr2
d|-0-0-0-0-0-0-0-0-0-0-0-0|0-0-0-0-0-0-0-0-0-0-0-0-|
a|------------------------|------------------------|
f|------------------------|------------------------|
C|------------------------|------------------------|
G|------------------------|------------------------|
D|------------------------|------------------------|

rattle  the   cage       I won't  be  your  slave  any-
Gtr1
   PM...|  PM...|  PM  PM.......|  PM...|  PM
d|------------------------|------------------------|
a|------------------------|------------------------|
f|------------------------|------------------------|
C|------------------------|------------------------|
G|-------5-------^---^----|------5-------^---8-7-5-|
D|-0-1-0---0-0-0-0-0-0-0-0|0-1-0---0-0-0-0-0-------|
Gtr2
d|-0-0-0-0-0-0-0-0-0-0-0-0|0-0-0-0-0-0-0-0-0-0-0-0-|
a|------------------------|------------------------|
f|------------------------|------------------------|
C|------------------------|------------------------|
G|------------------------|------------------------|
D|------------------------|------------------------|

 more"                                    "One last 
Gtr1                                    {Rhythm Fig 2 end}
   PM...|  PM...|  PM  PM...|  PM  PM.|
d|------------------------|------------------------|
a|------------------------|------------------------|
f|------------------------|------------7-5-4-------|
C|------------------------|------------------7-5-4-|
G|-------5-------^---^----|--^---^-----------------|
D|-0-1-0---0-0-0-0-0-0-0-0|0-0-0-0-0-0-------------|
Gtr2 
d|-0-0-0-0-0-0-0-0-0-0-0-0|-0-0-0-0-0-0------------|
a|------------------------|------------------------|
f|------------------------|------------------------|
C|------------------------|------------------------|
G|------------------------|-------------x\\\\\\\---|
D|------------------------|-------------x\\\\\\\\--|


2nd Chorus


______
Bridge|
______|

Gtr1  
d|------------------------|------------------------|
a|-5----------------------|------------------------|
f|-4----------------------|------------------------|
C|-2----------------------|------------------------|
G|-2----------------------|------------------------|
D|-0----------------------|------------------------|
Gtr2 w/ slide
d|------------------------|------------------------|
a|-9-9-9-9-9-9-9-9-9-9-9-9|9-9-9-9-9-9/131313131313|
f|------------------------|------------------------|
C|------------------------|------------------------|
G|------------------------|------------------------|
D|------------------------|------------------------|


Gtr1                        slight vol swell<<<<<<
d|------------------------|------------------------|
a|------------------------|-------------(5)--------|
f|------------------------|-------------(4)--------|
C|------------------------|-------------(2)--------|
G|------------------------|-------------(2)--------|
D|------------------------|-------------(0)--------|
Gtr2 w/ slide
d|------------------------|------------------------|
a|121212121212121212121212~~~~~~~~~~~~~~-----------|
f|------------------------|------------------------|
C|------------------------|------------------------|
G|------------------------|------------------------|
D|------------------------|------------------------|

 *The toggle switch is not used when they play this song live.
 Rather mark just tremolo picks similar notes
Gtr1  *using toggle switch
d|-----*------------------|------------------------|
a|-3---3---3---3---3---3--|------------------------|
f|-4---4---4---4---4---4--|5---5---5---5-----------|
C|-2---2---2---2---2---2--|2---2---2---3---0---0---|
G|------------------------|------------------------|
D|------------------------|------------------------|
Gtr2 w/ slide
d|------------------------|------------------------|
a|-9-9-9-9-9-9-9-9-9-9-9-9|9-9-9-9-9-913131515131312
f|------------------------|------------------------|
C|------------------------|------------------------|
G|------------------------|------------------------|
D|------------------------|------------------------|
[ Tab from: http://www.guitaretab.com/a/alter-bridge/159025.html ]
Gtr1
d|------------------------|------------------------|
a|------------------------|------------------------|
f|------------------------|------------------------|
C|-2~~~~~~~~~~~~~~~~~~~~~~~~~~~~~~~~---------------|
G|------------------------|------------------------|
D|------------------------|------------------------|
                          
Gtr2 w/ slide       *tremolo picking while sliding down neck
d|------------------------*\\\\\\\\\\\\\\\\\\------|
a|121212121212121212121212|------------------------|
f|------------------------|------------------------|
C|------------------------|------------------------|
G|------------------------|------------------------|
D|------------------------|------------------------|


"Broke me     into   pieces
tr1
PM..............|
d|------------------------|------------------------|
a|------------------------|------------------------|
f|------------------------|------------------------|
C|------------------------|------------------------|
G|-------5--------2--2----|------------------------|
D|-0-1-0---0-1-0--0--0----|------------------------|
Gtr2 w/ slide
d|------------------------|------------------------|
a|-9-9-9-9-9-9-9-9-9-9-9-9|9-9-9-9-9-9/131313131313|
f|------------------------|------------------------|
C|------------------------|------------------------|
G|------------------------|------------------------|
D|------------------------|------------------------|


  Don't tell   me What  to be"
Gtr1
PM..............|                                PM..
d|------------------------|------------------------|
a|------------------------|------------------------|
f|------------------------|------------------------|
C|------------------------|------------------------|
G|----------------2--2----|------------------------|
D|-0-1-0-0---0-1--0--0----|----------------------0-|
Gtr2 w/ slide
d|------------------------|------------------------|
a|121212121212121212121212~~~~~~~~~~~~~~-----------|
f|------------------------|------------------------|
C|------------------------|------------------------|
G|------------------------|------------------------|
D|------------------------|------------------------|


"D@mn   you  all     I'm gonna     find    my  
Gtr1
   PM..............................................
d|------------------------|------------------------|
a|------------------------|------------------------|
f|------------------------|------------------------|
C|------------------------|------------------------|
G|-------5-----------7----|------8-------5---7---8-|
D|-0-1-0---0-1-0-1-0---0-1|0-1-0---0-1-0---0---0---|
Gtr2 w/ slide
d|------------------------|------------------------|
a|-9-9-9-9-9-9-9-9-9-9-9-9|9-9-9-9-9-913131515131312
f|------------------------|------------------------|
C|------------------------|------------------------|
G|------------------------|------------------------|
D|------------------------|------------------------|


way.................................................."
Gtr1
   .........................................|
d|------------------------|------------------------|
a|------------------------|------------------------|
f|------------------------|------------------------|
C|------------------------|------------------------|
G|-------5-----------7----|------8-------5---8-7-5-|
D|-0-1-0---0-1-0-1-0---0-1|0-1-0---0-1-0---0-------|
Gtr2 w/ slide                 gtr2 keep tremolo picking through bend
d|------------------------|------------------------|
a|121212121212121212121212121212121212/////////1515|
f|------------------------|------------------------|
C|------------------------|------------------------|
G|------------------------|------------------------|
D|------------------------|------------------------|


Gtr1
d|------------------------|------------------------|
a|------------------------|------------------------|
f|------------------------|------------------------|
C|------------------------|------------------------|
G|-------5-----------7----|------8-------5---7---8-|
D|-0-1-0---0-1-0-1-0---0-1|0-1-0---0-1-0---0---0---|


Gtr1                                   
d|------------------------|------------------------|
a|------------------------|------------------------|
f|------------------------|------------------------|
C|------------------------|------------------------|
G|-------5-----------7----|------8-------5---8-7-5-|
D|-0-1-0---0-1-0-1-0---0-1|0-1-0---0-1-0---0-------|


Gtr1
d|------------------------|------------------------|
a|------------------------|------------------------|
f|------------------------|------------------------|
C|------------------------|------------------------|
G|-------5-----------7----|------8-------5---7---8-|
D|-0-1-0---0-1-0-1-0---0-1|0-1-0---0-1-0---0---0---|


Gtr1                                  "One   last
d|------------------------|------------------------|
a|------------------------|------------------------|
f|------------------------|------------------------|
C|------------------------|------------------------|
G|-------5-----------7----|------8-------5---8-7-5-|
D|-0-1-0---0-1-0-1-0---0-1|0-1-0---0-1-0---0-------|
Gtr2                                    PS 
d|------------------------|------------------------|
a|------------------------|------------------------|
f|------------------------|------------------------|
C|------------------------|------------------------|
G|------------------------|-------------x\\\\\\\\\-|
D|------------------------|-------------x\\\\\\\\\\|


___________
Last Chorus|
___________|

{Guitar1 w/ Rhythm figure 3}

(It's this part that makes the song for me..just sounds amazing
with the chorus)

hope..."                "To  rise  and break    away
Gtr1[Mark] (play over chorus)
   PM...|      PM...|      PM...|      PM...|
d|------------------------|------------------------|
a|------------------------|------------------------|
f|-------5---2-------2---2|------5---4-------2---4-|
C|-3-3-3-------3-3-3------|2-2-2-------2-2-2-------|
G|------------------------|------------------------|
D|------------------------|------------------------|

                 Above the fading     line"
Gtr1
   PM...|      PM...|      PM...|
d|------------------------|------------------------|
a|-------3----------------|------1---------1-------|
f|-----------2-------2---2|----------2-----2-------|
C|-5-5-5-------5-5-5------|3-3-3-------3-----------|
G|------------------------|------------------------|
D|------------------------|------------------------|

   "WAaay                beyond   the ties   that bind"
Gtr1
   PM...|      PM...|      PM...|      PM...|
d|------------------------|------3---------------0-|
a|------------------------|----------3-------3-----|
f|-------5---2-------2----|5-5-5-------5-5-5-------|
C|-3-3-3-------3-3-3-3----|------------------------|
G|------------------------|------------------------|
D|------------------------|------------------------|

                                       "This   I
Gtr1
d|-------0-----------0----|------0-----------0-----|
a|-------0-----------0----|------0-----------0-----|
f|-2-2-2-------2-2-2------|2-2-2-------2-2-2-------|
C|------------------------|------------------------|
G|------------------------|------------------------|
D|------------------------|------------------------|



know..."             "The  risk    is worth   the gain
Gtr1
   PM...|      PM...|      PM...|      PM...|
d|------------------------|------------------------|
a|------------------------|------------------------|
f|-------10--9-------7---9|------9---7-------5---7-|
C|-7-7-7-------7-7-7------|101010------101010------|
G|------------------------|------------------------|
D|------------------------|------------------------|

                  It's worth the sacrifice"
Gtr1
   PM...|      PM...|      PM...|      PM...|                            
d|------------------------|------------------------|
a|-------8----------------|------------------------|
f|-----------7-------7---7|------9---7-------5---7-|
C|-9-9-9-------9-9-9------|101010----- 101010------|
G|------------------------|------------------------|
D|------------------------|------------------------|

   "WAaay                beyond   the ties   that bind"
Gtr1
   PM...|      PM...|      PM...|      PM...|
d|------------------------|------3-----------0-----|
a|------------------------|------3-----------0-----|
f|-------10--9-------7---9|5-5-5-------5-5-5-------|
C|-7-7-7-------7-7-7------|------------------------|
G|------------------------|------------------------|
D|------------------------|------------------------|


Gtr1
d|-------0-----------0----|------0-----------0-----|
a|-------0-----------0----|------0-----------0-----|
f|-2-2-2-------2-2-2------|2-2-2-------2-2-2-------|
C|------------------------|------------------------|
G|------------------------|------------------------|
D|------------------------|------------------------|



____
Solo|
____|

Gtr1                                  
d|------------------------|------------------------|
a|------------------------|------------------------|
f|-7bbbbbbb9------8pb7-5-7~~~~~~~~~~---------5---x-|
C|------------------------|----------------7x------|
G|------------------------|------------------------|
D|------------------------|------------------------|
Gtr2
d|------------------------|------------------------|
a|------------------------|------------------------|
f|------------------------|------------------------|
C|-3---3-3---3-3-3-3-3---3|2-2-2-2---2-2-2-2-2---2-|
G|-3---3-3---3-3-3-3-3---3|2-2-2-2---2-2-2-2-2---2-|
D|-1---1-1---1-1-1-1-1---1|0-0-0-0---0-0-0-0-0---0-|


Gtr1                                  
d|------------------------|------------------------|
a|------------------------|------------------------|
f|8pb7-5---------------5~~~~~~~~~~~~~~~~~~---------|
C|-------7---7---7-5h7----|----------------7-7p5---|
G|------------------------|----------------------7-|
D|------------------------|------------------------|
Gtr2
d|------------------------|------------------------|
a|------------------------|------------------------|
f|------------------------|------------------------|
C|-5-5-5-5---5-5-5-5-5---5|3-3-3-3---3-3-3-3-3---3-|
G|-5-5-5-5---5-5-5-5-5---5|3-3-3-3---3-3-3-3-3---3-|
D|-3-3-3-3---3-3-3-3-3---3|1-1-1-1---1-1-1-1-1---1-|


Gtr1                                     PH
d|------------------------|------------------------|
a|------------------------|------------------------|
f|------------------------|5---7b9b7p5---5~~~----7b|
C|-5---5-7p5---5h7~~~~--5h7------------7-----7-----|
G|-----------7------------|------------------------|
D|------------------------|------------------------|
Gtr2
d|------------------------|------------------------|
a|------------------------|------------------------|
f|------------------------|5---5-5-5-5-------------|
C|-3-3-3-3---3-3-3-3-3---3|5---5-5-5-5-5---5-5-5-5-|
G|-3-3-3-3---3-3-3-3-3---3|3---3-3-3-3-3---5-5-5-5-|
D|-1-1-1-1---1-1-1-1-1---1|3---3-3-3-3-3---3-3-3-3-|


Gtr1                                 PH       
d|------------------------|------------------------|
a|---8-5---5-8------------|------------------------|
f|b9----7b9---8pb7p5-7-7--|5---------5~~~~~~~16----|
C|-----------------------7|--7p5-------------x-----|
G|------------------------|------7-5---------14----|
D|------------------------|------------------------|
Gtr2
d|------------------------|------------------------|
a|------------------------|------------------------|
f|-2---2-2-2-2-2---2-2-2-2|2---2-2-2-2-2---2-2-2-2-|
C|-2---2-2-2-2-2---2-2-2-2|2---2-2-2-2-2---2-2-2-2-|
G|-0---0-0-0-0-0---0-0-0-0|0---0-0-0-0-0---0-0-0-0-|
D|------------------------|------------------------|

Gtr1
   *w/ wah
d|------------------------|------------------------|
a|------------------------|------------------------|
f|-171717171717171717191919161616161616161616161616|
C|-x-x-x-x-x-x-x-x-x-x-x-x|x-x-x-x-x-x-x-x-x-x-x-x-|
G|-151515151515151515171717141414141414141414141414|
D|------------------------|------------------------|
Gtr2
d|------------------------|------------------------|
a|------------------------|------------------------|
f|------------------------|------------------------|
C|-3---3-3---3-3-3-3-3---3|2-2-2-2---2-2-2-2-2---2-|
G|-3---3-3---3-3-3-3-3---3|2-2-2-2---2-2-2-2-2---2-|
D|-1---1-1---1-1-1-1-1---1|0-0-0-0---0-0-0-0-0---0-|


Gtr1
   (w/ wah)
d|------------------------|---------------------------|
a|------------------------|---------------------------|
f|-16161616161616161617-\12---------------------------|
C|-x-x-x-x-x-x-x-x-x-x----|------10--12-pb14b12p10--10|
G|-14141414141414141415-\10-----------------------12--|
D|------------------------|---------------------------|
Gtr2
d|------------------------|------------------------|
a|------------------------|------------------------|
f|------------------------|------------------------|
C|-5-5-5-5---5-5-5-5-5---5|3-3-3-3---3-3-3-3-3---3-|
G|-5-5-5-5---5-5-5-5-5---5|3-3-3-3---3-3-3-3-3---3-|
D|-3-3-3-3---3-3-3-3-3---3|1-1-1-1---1-1-1-1-1---1-|


Gtr1
d|------------------------|------------------------|
a|------------------------|------------------------|
f|-12----0---10----0---9h10----0-------------------|
C|------------------------|------10--9~~~~~~~~~//15|
G|------------------------|------------------------|
D|------------------------|------------------------|
Gtr2
d|------------------------|------------------------|
a|------------------------|------------------------|
f|------------------------|5---5-5-5-5-------------|
C|-3-3-3-3---3-3-3-3-3---3|5---5-5-5-5-5---5-5-5-5-|
G|-3-3-3-3---3-3-3-3-3---3|3---3-3-3-3-3---5-5-5-5-|
D|-1-1-1-1---1-1-1-1-1---1|3---3-3-3-3-3---3-3-3-3-|


                              *This part played by a third guitar on the recording
Gtr1                                                  *
d|----------------------------|-----------------------19b20~~~|
a|13h17p13--------12h15p12----|--17h20p17-----22-22-x-20b22~~~|
f|--------14----12--------12--|-17------17-----21-21x---------|
C|---------15p12------------14/17--------17/22----------------|
G|----------------------------|-------------------------------|
D|----------------------------|-------------------------------|
                 
Gtr2
d|------------------------|------------------------|
a|------------------------|------------------------|
f|-2---2-2-2-2-2---2-2-2-2|2---2-2-2-2-2-----------|
C|-2---2-2-2-2-2---2-2-2-2|2---2-2-2-2-2-----------|
G|-0---0-0-0-0-0---0-0-0-0|0---0-0-0-0-0-----------|
D|------------------------|------------------------|


_____
Outro|
_____|

(Gtr1 tacet)
Gtr2
   PM...|  PM    PM.|  PM    PM.|  PM
d|------------------------|------------------------|
a|------------------------|------------------------|
f|------------------------|------------------------|
C|------------------------|----------10--7---9-----|
G|-------5-----------7----|------8---8---5---7-----|
D|-0-0-0---0-1p0-0-0---0-1p0-0-0---0---0---0---0-1-|


Gtr2
   PM...|  PM    PM.|  PM    PM.|
d|------------------------|------------------------|-----|
a|------------------------|------------------------|-----|
f|------------------------|------------------------|-9---|
C|------------------------|------------------------|-9---|
G|-------5-----------7----|------8---8---5---8-7-5-|-7---|
D|-0-1-0---0-1p0-0-0---0-1p0-0-0---0---0---0-------|-0---|
Gtr2
   PM...|  PM    PM.|  PM    PM.|
d|------------------------|------------------------|-----|
a|------------------------|------------------------|-----|
f|------------------------|------------------------|-9---|
C|------------------------|------------------------|-9---|
G|-------5-----------7----|------8---8---5---8-7-5-|-7---|
D|-0-1-0---0-1p0-0-0---0-1p0-0-0---0---0---0-------|-0---|




| /  slide up
| \  slide down
| PM palm mute
| PH pinch harmonic
| h  hammer-on
| p  pull-off
| ~  vibrato
| *  harmonic
| x  Mute note (or rake)
====================================================
Related for Ties That Bind tab
Ties That Bind chords by Alter Bridge