Song name
# A B C D E F G H I J K L M N O P Q R S T U V W X Y Z

Alter Bridge - Buried Alive tab

this is as close as i could get on my first try =P.

order of parts: 1,2,3,2,3,4,1,2,3,4,5,4,6
key:
s= slide
v= vibrato
h= hammeron
pt1:

E|---------------------------------------------------------------------------|
B|--10-8--8---------10-9---------5-6-7---------------------3-4---------------|
G|-7-----6---------7-----6---5-7---------2-4-5s3--321-----2------------------|
D|----------------------------------------------------321--------------------|
A|------------------------------------------------------2--------------------|
E|---------------------------------------------------------------------------|


pt2:                                 pt3:

E|-----------------------------|     E|-------------------------------------|
B|---910---109---910---9v------|x2   B|------987---------------765----------|
G|-77----77----77----77--------|     G|-78910---891098-----5678---67876-----|
D|-----------------------------|     D|-------------------------------------|
A|-----------------------------|     A|-------------------------------------|
E|-----------------------------|     E|-------------------------------------|


pt4:                                 pt5:

E|-----------------------------|     E|-------------------------------------|
B|--9h10-9------5-7-3654565----|x4   B|---1098----10-11-10------------------|
G|-7---------------------------|     G|--7-----87---------------------------|
D|-----------------------------|     D|-------------------------------------|
A|-----------------------------|     A|-------------------------------------|
E|-----------------------------|     E|-------------------------------------|

pt6:

E|-------5--------3-------4--------2--------|
B|-------5--------3-------4--------2--------|
G|-------6--------4-------5--------3--------|
D|-------7--------5-------6--------4--------|
A|-------7--------5-------6--------4--------|
E|-------5--------3-------4--------2--------|

hope it helps.


http://www.creaturefeaturemusic.com/
Tap to rate this tab
# A B C D E F G H I J K L M N O P Q R S T U V W X Y Z