Guitaretab - guitar tabs
Song name
# A B C D E F G H I J K L M N O P Q R S T U V W X Y Z

Alter Bridge - White Knuckles tab

Tuning: Drop B

Intro/Pre Chorus
|--------------------------------------------------------------|
|--------------------------------------------------------------|
|--------------------------------------------------------------|
|--------------------------------------------------------------|
|--------------------------------------------------------------|
|-11-10-9-0-0-0-11-10-9-0-0-0-9-8-7-0-0-0-7-6-5-0-0-0-54324321-|

Verse (Palm-Muted)
|------------------------------|
|------------------------------|
|------------------------------|
|------------------------------|
|-3-3--2-2--3-3--2-2-----------|
|-1-1--0-0--1-1--0-0--54324321-|
[ Tab from: http://www.guitaretab.com/a/alter-bridge/163627.html ]
Chorus/Rhythm Behind Solo
|-----------------------------------------------------------------|
|-----------------------------------------------------------------|
|-----------------------------------------------------------------|
|-----------------------------------------------------------------|
|-9-9-9-9-9-9-9-9-7-7-7-7-7-7-7-7-5-5-5-5-5-5-5-5-4-4-4-4-4-4-4-4-|
|-7-7-7-7-7-7-7-7-5-5-5-5-5-5-5-5-3-3-3-3-3-3-3-3-2-2-2-2-2-2-2-2-|
  . . . .         . . . .         . . . .         . . . .

Bridge (Palm-Muted) im' taking back control with my knuckles
|------------------------------------------------------------------|
|------------------------------------------------------------------|
|------------------------------------------------------------------|
|------------------------------------------------------------------|
|------------------------------------------------------------------|
|-7777777777777777555555555555555533333333333333332222222222222222-

Interlude
|---------------------------|
|---------------------------|
|---------------------------|
|---------------------------|
|-------------------------5-|
|-5432-54324321-5430-5432-3-|

Solo
Coming Soon!

After Solo Riff break it, smash it, kill it, fuck 'em all
|------------------------------|
|------------------------------|
|------------------------------|
|-3-3--2-2--3-3--2-2-----------|
|-3-3--2-2--3-3--2-2-----------|
|-1-1--0-0--1-1--0-0--54324321-|
Related for White Knuckles tab
×
White Knuckles