Song name
# A B C D E F G H I J K L M N O P Q R S T U V W X Y Z

Alter Bridge - Watch Over You Acoustic tab

Alter Bridge - Watch Over You
Original tabbing done by J. Handfield:
http://www.ultimate-guitar.com/tabs/a/alter_bridge/watch_over_you_ver2_tab.htm

This is not my tab, I just rearranged it for a full acoustic version.
Electric guitar parts have been removed and some parts rearranged.
Full credit for the tab goes to the original author, J. Handfield.
It's based on the Live version in Amsterdam:
http://www.youtube.com/watch?v=WR4_chcwvoM


Open G Tuning (D G D G B D),

Intro, 2x:

D--0--0-0-0-0----0--0--0-|--0--0-0--0-0--0---0-0-|--0--0-0--0----0--0--0-|
B--0--0-0-0-10---0-12--0-|--5--5-3--3-3--3---3-3-|--0--0-0--10---0--12-0-|
G--0--0-0-0-0----0--0--0-|--0--0-0--0-0--0---0-0-|--0--0-0--0----0--0--0-|
D--0--------10-----12----|--5-------5----5-------|--0-------10------12---|
G--0--------0------0-----|--0-------0----0-------|--0-------0-------0----|
D------------------------|-----------------------|-----------------------|

D--0--0-0--0-0-0---0---0-0---|
B--5--5-5--5-5-5---5/7-7-7--o|
G--0--0-0--0-0-0---0---0-0---|
D--5--5-5--5-5-5---5/7-7-7---|
G--0----0--0-------0--------o|
D----------------------------|

VERSE (Same as INTRO)

D--0--0-0-0-0----0--0--0-|--0--0-0--0-0--0---0-0-|--0--0-0--0----0--0--0-|
B--0--0-0-0-10---0-12--0-|--5--5-3--3-3--3---3-3-|--0--0-0--10---0--12-0-|
G--0--0-0-0-0----0--0--0-|--0--0-0--0-0--0---0-0-|--0--0-0--0----0--0--0-|
D--0--------10-----12----|--5-------5----5-------|--0-------10------12---|
G--0--------0------0-----|--0-------0----0-------|--0-------0-------0----|
D------------------------|-----------------------|-----------------------|
"Leaves are on the ground"                            				"Fall has come"

D--0--0-0--0-0-0---0---0-0---|
B--5--5-5--5-5-5---5/7-7-7--o|
G--0--0-0--0-0-0---0---0-0---|
D--5--5-5--5-5-5---5/7-7-7---|
G--0----0--0-------0--------o|
D----------------------------|


D--0--0-0-0-0----0--0--0-|--0--0-0--0-0--0---0-0-|--0--0-0--0----0--0--0-|
B--0--0-0-0-10---0-12--0-|--5--5-3--3-3--3---3-3-|--0--0-0--10---0--12-0-|
G--0--0-0-0-0----0--0--0-|--0--0-0--0-0--0---0-0-|--0--0-0--0----0--0--0-|
D--0--------10-----12----|--5-------5----5-------|--0-------10------12---|
G--0--------0------0-----|--0-------0----0-------|--0-------0-------0----|
D------------------------|-----------------------|-----------------------|
"Blue skies turning Grey"                              "Like my Love"

D--0--0-0--0-0-0---0---0-0---|
B--5--5-5--5-5-5---5/7-7-7--o|
G--0--0-0--0-0-0---0---0-0---|
D--5--5-5--5-5-5---5/7-7-7---|
G--0----0--0-------0--------o|
D----------------------------|


D--0--0-0-0-0----0--0--0-|--0--0-0--0-0--0---0-0-|--0--0-0--0----0--0--0-|
B--0--0-0-0-10---0-12--0-|--5--5-3--3-3--3---3-3-|--0--0-0--10---0--12-0-|
G--0--0-0-0-0----0--0--0-|--0--0-0--0-0--0---0-0-|--0--0-0--0----0--0--0-|
D--0--------10-----12----|--5-------5----5-------|--0-------10------12---|
G--0--------0------0-----|--0-------0----0-------|--0-------0-------0----|
D------------------------|-----------------------|-----------------------|
"I tried to carry you                         	"And make you whole"

D--0--0-0--0-0-0---0---0-0---|
B--5--5-5--5-5-5---5/7-7-7--o|
G--0--0-0--0-0-0---0---0-0---|
D--5--5-5--5-5-5---5/7-7-7---|
G--0----0--0-------0--------o|
D----------------------------|

D--0--0-0-0-0----0--0--0-|--0--0-0--0-0--0---0-0-|--0--0-0--0----0--0--0-|
B--0--0-0-0-10---0-12--0-|--5--5-3--3-3--3---3-3-|--0--0-0--10---0--12-0-|
G--0--0-0-0-0----0--0--0-|--0--0-0--0-0--0---0-0-|--0--0-0--0----0--0--0-|
D--0--------10-----12----|--5-------5----5-------|--0-------10------12---|
G--0--------0------0-----|--0-------0----0-------|--0-------0-------0----|
D------------------------|-----------------------|-----------------------|
"But it was ne________"                          "ver enough, I must"


CHORUS


D|--0--0-0--0-0-0---0---0-0---|---0-0---0--|----0-0---0--|----0-0----0--|
B|--5--5-5--5-5-5---5/7-7-7--o|---3-3---3--|----3-3---3--|----3-3----3--|
G|--0--0-0--0-0-0---0---0-0---|---0-0---0--|----0-0---0--|----0-0----0--|
D|--5--5-5--5-5-5---5/7-7-7---|---5-5---5--|----5-5---5--|----5-5----5--|
G|--0----0--0-------0--------o|------------|-------------|--5------5----|
D|----------------------------|-2-----2----|-0-0----0----|--------------|

     "go_____________"      	"Who______________ is going to save you when

D--0--0-0---0-0-|----0-0---0--|----0-0---0--|----------|----------|
B--0--0-0---0-0-|----3-3---3--|----3-3---3--|--5-------|----------|
G--0--0-0---0-0-|----0-0---0--|----0-0---0--|--0--REPEAT STRUM----|
D--0--0-0---0-0-|----5-5---5--|----5-5---5--|--5-------|----------|
G--0--0-0---0-0-|-------------|-------------|--5-------|----------|
D---------4-----|--2-----2----|-0-0----0----|----------|----------|

I'm gone?"        "Who'll       watch over you,       When I'm gone"


VERSE 2 (Same riff as INTRO and VERSE 1, 3x)

D--0--0-0-0-0----0--0--0-|--0--0-0--0-0--0---0-0-|--0--0-0--0----0--0--0-|
B--0--0-0-0-10---0-12--0-|--5--5-5--5-5--5---5-5-|--0--0-0--10---0--12-0-|
G--0--0-0-0-0----0--0--0-|--0--0-0--0-0--0---0-0-|--0--0-0--0----0--0--0-|
D--0--------10-----12----|--5-------5----5-------|--0-------10------12---|
G--0--------0------0-----|--0-------0----0-------|--0-------0-------0----|
D------------------------|-----------------------|-----------------------|

"You say you care for me"                          			"But hide it well"

D--0--0-0--0-0-0---0---0-0-----|
B--5--5-5--5-5-5---5/7-7-7----o|
G--0--0-0--0-0-0---0---0-0-----|
D--5--5-5--5-5-5---5/7-7-7-----|
G--0----0--0-------0----------o|
D------------------------------|

D--0--0-0-0-0----0--0--0-|--0--0-0--0-0--0---0-0-|--0--0-0--0----0--0--0-|
B--0--0-0-0-10---0-12--0-|--5--5-3--3-3--3---3-3-|--0--0-0--10---0--12-0-|
G--0--0-0-0-0----0--0--0-|--0--0-0--0-0--0---0-0-|--0--0-0--0----0--0--0-|
D--0--------10-----12----|--5-------5----5-------|--0-------10------12---|
G--0--------0------0-----|--0-------0----0-------|--0-------0-------0----|
D------------------------|-----------------------|-----------------------|

"How can you love"                             "someone not yourself"

D--0--0-0--0-0-0---0---0-0---|
B--5--5-5--5-5-5---5/7-7-7--o|
G--0--0-0--0-0-0---0---0-0---|
D--5--5-5--5-5-5---5/7-7-7---|
G--0----0--0-------0--------o|
D----------------------------|


CHORUS

D|--0--0--0----0--0--0--0--|----0-0---0--|----0-0---0--|----0-0----0--|
B|--12----12---12-12-12-12-|----3-3---3--|----3-3---3--|----3-3----3--|
G|--0--0--0----0--0--0--0--|----0-0---0--|----0-0---0--|----0-0----0--|
D|--12----12---12-12-12-12-|----5-5---5--|----5-5---5--|----5-5----5--|
G|--0-----0----0--0--0--0--|-------------|-------------|--5------5----|
D|-------------------------|--2-----2----|-0-0----0----|--------------|

     "go_____________"      "Who______________ is going to save you when

D--0--0-0---0-0-|----0-0---0--|----0-0---0--|----------|----------|
B--0--0-0---0-0-|----3-3---3--|----3-3---3--|--5-------|----------|
G--0--0-0---0-0-|----0-0---0--|----0-0---0--|--0--REPEAT STRUM----|
D--0--0-0---0-0-|----5-5---5--|----5-5---5--|--5-------|----------|
G--0--0-0---0-0-|-------------|-------------|--5-------|----------|
D---------4-----|--2-----2----|-0-0----0----|----------|----------|

I'm gone?"        "Who'll       watch over you,       When I'm gone"


INTERLUDE

D|-------------------------|-------------------------------|
B|-10-12-13-13-13-10-10-12-|-12-12-12-15-15-15-13-12h13p12-|
G|--0--0--0--0--0--0--0--0-|--0--0--0--0--0--0--0--0-------|
D|--0--0--0--0--0--0--0--0-|--0--0--0--0--0--0--0--0-------|
G|--0--0--0--0--0--0--0--0-|--0--0--0--0--0--0--0--0-------|
D|-------------------------|-------------------------------|


D|-------------------------|--------------------------|
B|-10-12-12-13-13-10-10-12-|-12-12-12-15-15-15-15-15--|
G|--0--0--0--0--0--0--0--0-|--0--0--0--0--0--0--0--0--|
D|--0--0--0--0--0--0--0--0-|--0--0--0--0--0--0--0--0--|
G|--0--0--0--0--0--0--0--0-|--0--0--0--0--0--0--0--0--|
D|-------------------------|--------------------------|


D|------------------|-----------------|-----------------|-------------------|
B|------------------|-----------------|-----------------|------------------o|
G|------------------|-5-5-5-5-5-5-5-5-|-0-0-0-0-0-0-0-0-|-------------------|
D|--2-2-2-2-2-2-2-2-|-5-5-5-5-5-5-5-5-|-0-0-0-0-0-0-0-0-|-0-0-0-0-0-0-0-0---|
G|--4-4-4-4-4-4-4-4-|-5-5-5-5-5-5-5-5-|-0-0-0-0-0-0-0-0-|-2-2-2-2-2-2-2-2--o|
D|--2-2-2-2-2-2-2-2-|-----------------|-----------------|-0-0-0-0-0-0-0-0---|

   "And when I'm gone Who will break your fall?  Who will you blame?"

D|------------------|-----------------|-----------------|-------------------|
B|------------------|-----------------|-----------------|------------------o|
G|------------------|-5-5-5-5-5-5-5-5-|-0-0-0-0-0-0-0-0-|-------------------|
D|--2-2-2-2-2-2-2-2-|-5-5-5-5-5-5-5-5-|-0-0-0-0-0-0-0-0-|-0-0-0-0-0-0-0-0---|
G|--4-4-4-4-4-4-4-4-|-5-5-5-5-5-5-5-5-|-0-0-0-0-0-0-0-0-|-2-2-2-2-2-2-2-2--o|
D|--2-2-2-2-2-2-2-2-|-----------------|-----------------|-0-0-0-0-0-0-0-0---|

   "I can't go on and let you lose it all. It's more than I can take"


D|------------------|----------|---------|--------|--------|
B|------------------|----------|---------|--------|--------|
G|------------------|-5--------|---------|--------|--------|
D|--2-2-2-2-2-2-2-2-|-5--------|---------|--------|--------|
G|--4-4-4-4-4-4-4-4-|-5--------|---------|--------|--------|
D|--2-2-2-2-2-2-2-2-|----------|---------|--------|--------|

 "Who'll ease your pain?  Ease your pain"

Now play the INTRO riff again, except for the last bar, which is different:

D--0--0-0-0-0----0--0--0-|--0--0-0--0-0--0---0-0-|--0--0-0--0----0--0--0-|
B--0--0-0-0-10---0-12--0-|--5--5-3--3-3--3---3-3-|--0--0-0--10---0--12-0-|
G--0--0-0-0-0----0--0--0-|--0--0-0--0-0--0---0-0-|--0--0-0--0----0--0--0-|
D--0--------10-----12----|--5-------5----5-------|--0-------10------12---|
G--0--------0------0-----|--0-------0----0-------|--0-------0-------0----|
D------------------------|-----------------------|-----------------------|

D|--0--0--0----0--0--0--0--|-------------------|
B|--12----12---12-12-12-12-|-------------------|
G|--0--0--0----0--0--0--0--|-0-0-0-0-----------|
D|--12----12---12-12-12-12-|-0-0-0-0-----------|
G|--0-----0----0--0--0--0--|-0-0-0-0-6-6-6-2---|
D|-------------------------|---------4-4-4-0---|

FINAL CHORUS

D|-----------------|----------------|-----------------|------------------|
B|-----------------|----------------|-----------------|------------------|
G|-----------------|----------------|-5-5-5-5-5-5-5-5-|-0-0-0-0----------|
D|--2--2-2-2-2-2-2-|-0--0-0-0-0-0-0-|-5-5-5-5-5-5-5-5-|-0-0-0-0----------|
G|--4--4-4-4-4-4-4-|-2--2-2-2-2-2-2-|-5-5-5-5-5-5-5-5-|-0-0-0-0-6-6-6-6--|
D|--2--2-2-2-2-2-2-|-0--0-0-0-0-0-0-|-----------------|---------4-4-4-4--|

 "And Love______________________           is gonna save you when I'm gone."


D|------------------------|------------------------|-----------------|
B|------------------------|------------------------|-----------------|
G|------------------------|------------------------|-5-5-5-5-5-4-2-0-|
D|--2----2--2--2--2--2--2-|--0----0--0--0--0--0--0-|-5-5-5-5-5-4-2-0-|
G|--4----4--4--4--4--4--4-|--2----2--2--2--2--2--2-|-5-5-5-5-5-4-2-0-|
D|--2----2--2--2--2--2--2-|--0----0--0--0--0--0--0-|-----------------|

 "And I'll_______________________________ watch over you.


D|-------------------|-----------------|----------------|-----------------|
B|-------------------|-----------------|----------------|-----------------|
G|-0-0-0-0-----------|-----------------|----------------|-5-5-5-5-5-5-5-5-|
D|-0-0-0-0-----------|--2--2-2-2-2-2-2-|-0--0-0-0-0-0-0-|-5-5-5-5-5-5-5-5-|
G|-0-0-0-0-6-6-6-6---|--4--4-4-4-4-4-4-|-2--2-2-2-2-2-2-|-5-5-5-5-5-5-5-5-|
D|---------4-4-4-4---|--2--2-2-2-2-2-2-|-0--0-0-0-0-0-0-|-----------------|

      And I_______________   will give you strength when you're not"


D|------------------|-----------------|----------------|------|
B|------------------|-----------------|----------------|------|
G|-0-0-0-0----------|-----------------|----------------|--5~--|
D|-0-0-0-0----------|--2--2-2-2-2-2-2-|-0--0-0-0-0-0-0-|--5~--|
G|-0-0-0-0-6-6-6-6--|--4--4-4-4-4-4-4-|-2--2-2-2-2-2-2-|--5~--|
D|---------4-4-4-4--|--2--2-2-2-2-2-2-|-0--0-0-0-0-0-0-|------|

 "strong."           "Who'll watch over you when I've gone away?"

OUTRO

D--0--0-0-0-0----0--0--0-|--0--0-0--0-0--0---0-0-|--0--0-0--0----0--0--0-|
B--0--0-0-0-10---0-12--0-|--5--5-3--3-3--3---3-3-|--0--0-0--10---0--12-0-|
G--0--0-0-0-0----0--0--0-|--0--0-0--0-0--0---0-0-|--0--0-0--0----0--0--0-|
D--0--------10-----12----|--5-------5----5-------|--0-------10------12---|
G--0--------0------0-----|--0-------0----0-------|--0-------0-------0----|
D------------------------|-----------------------|-----------------------|

"Snow is on the ground"                         			"Winter's come"

D--0--0-0--0-0-0---0---0-0---|
B--5--5-5--5-5-5---5/7-7-7--o|
G--0--0-0--0-0-0---0---0-0---|
D--5--5-5--5-5-5---5/7-7-7---|
G--0----0--0-------0--------o|
D----------------------------|

                                                     Soft strumming near
                                                          the end
D--0--0-0-0-0----0--0--0-|--0--0-0--0-0--0---0-0-|--0--0-0--0----0--0--0-|
B--0--0-0-0-10---0-12--0-|--5--5-3--3-3--3---3-3-|--0--0-0--10---0--12-0-|
G--0--0-0-0-0----0--0--0-|--0--0-0--0-0--0---0-0-|--0--0-0--0----0--0--0-|
D--0--------10-----12----|--5-------5----5-------|--0-------10------12---|
G--0--------0------0-----|--0-------0----0-------|--0-------0-------0----|
D------------------------|-----------------------|-----------------------|

"You long to hear my voice"  	                      	"But I'm long gone"
Tap to rate this tab
# A B C D E F G H I J K L M N O P Q R S T U V W X Y Z