Song name
# A B C D E F G H I J K L M N O P Q R S T U V W X Y Z

Alter Bridge - In Loving Memory Acoustic tab

Well this is the intro Mark... plays before the intro???  in the Minneapolis concert,
it's my first tab and it has tons of mistakes so feel free of correcting it and if you do
please send it to me to ejcm2@hotmail.com so i can play it better je,je,je.

This goes to my family and friends and specially to Mark Tremonti
for writing this beautiful heart-breaking song (I KNOW HE'LL NEVER READ THIS DEDICATION)

TABBED BY EDSON CHUC
(When the hell will Alter Bridge come to Guatemala!!!!!????)


C#||-------------------------------------------------------|
Bb||--12----10h12-12h13p12--10--12-----10-10--12-12h13p12--|
F#||-----------------------------------11-11-------------11|
C#||-------------------------------------------------------|
F#||--12-12------------------------------------------------|
C#||-------------------------------------------------------|

                                                             x2    play this after the second time
C#--------------------12--------------0-----|-------------------||
Bb--- 10-10----10------------8--8---8----- |- 7-7-7-5-----------||
F#----10-----10---10----10-- 9----9------- |-  0-0-0-0----------||
C#------------------------------------------ |0-0-0-0-----------||
F#------------------------------------------ |7-7-7-5-----------||
C#--------------------------------------- ---|------------------||

and then play the whole song
Tap to rate this tab
# A B C D E F G H I J K L M N O P Q R S T U V W X Y Z