Song name
# A B C D E F G H I J K L M N O P Q R S T U V W X Y Z

Alter Bridge - Isolation tab

-------------------------------------------------------------------------------
			     ISOLATION - ALTER BRIDGE (ABIII)
-------------------------------------------------------------------------------
Tabbed by:Stephen HarrySound Harrison
Email: HarrySound@hotmail.com

Tuning:Dropped C

  Fig1 Mainrif                                                        Fig1 end
D|---------------------------------------------------------------------------|
A|---------------------------------------------------------------------------|
F|---------------------------------------------------------------------------|
C|-----------------------------------12-----7-----4--------------------------|
G|-0-5-8\7-----0-8\7-5---------------8------3-----5--------------------------|
C|-0-5-8\7-0-0-0-8\7-5-0-0--000--0-0-8--0-0-3-0-0-0-0-0-000-1p0-1p0----------|
           * *         * *  ***  * *    * *   * *   * * ***

D|---------------------------------------------------------------------------|
A|---------------------------------------------------------------------------|
F|---------------------------------------------------------------------------|
C|-----------------------------------12-----7-----4---------1p0--------------|
G|-0-5-8\7-----0-8\7-5---------------8------3-----5-------------3p0----------|
C|-0-5-8\7-0-0-0-8\7-5-0-0--000--0-0-8--0-0-3-0-0-0-0-0-000------------------|
           * *         * *  ***  * *    * *   * *   * * ***

D|-1--------------------------1----------------------------------------------|
A|-1--------------------------1----------------------------------------------|
F|-3--------------------------3----------------------------------------------|
C|-3----3---3----FIG 1 x1-----3----3--3----Into Chorus-----------------------|
G|-1----3---3-----------------1----3--3--------------------------------------|
C|------3---2----------------------3--2--------------------------------------|


  Chorus
D|---------3-----------------3-----------------------------------------------|
A|--3------3-----------------3---3-------------------------------------------|
F|--2------5-------3---------5---4-------------------------------------------|
C|--0------5-------3---3-----5---5------0-1----------------------------------|
G|--0------3-------1---3-----3---2------0-1----------------------------------|
C|--0------------------3----------------0-1----------------------------------|
                                        *

Breakdown
D|---------------------------------------------------------------------------|
A|---------------------------------------------------------------------------|
F|---------------------------------------------------------------------------|
C|---------------------------------------------------------------------------|
G|-----8-6-5-6---------8-6-5-----8-6-5-6---------3-5-3-----8-6-5-6-----------|
C|-0-0---------0-0-0-0-------0-0---------0-0-0-0-------0-0---------0-0-0-0---|
   * *         * * * *       * *         * * * *       * *         * * * *
D|---------------------------------------------------------------------------|
A|---------------------------------------------------------------------------|
F|---------------------------------------------------------------------------|
C|---------------------------------------------------------------------------|
G|-8-6-5-----8-6-5-6PH-------------------------------------------------------|
C|-------0-0-----------------------------------------------------------------|
         * *
Tap to rate this tab
 
# A B C D E F G H I J K L M N O P Q R S T U V W X Y Z