Song name
# A B C D E F G H I J K L M N O P Q R S T U V W X Y Z

Alter Bridge - Wonderful Life tab

Here's what i worked out to be the intro and verse to the new Alter Bridge song, 
Life, in Standard Tuning. Note: Intro and Verse uses exact same chord pattern but the intro is 
whereas verses are fingerpicked.
Here's the Verse tab, but just strum these exact chords for the same duration that you 
and it is the Intro as well. Too Easy.
Enjoy

Verse Tab: Fingerpicked

e|----------------------------------------------------------------------------|
B|-12-----12--13-----13--10-----10--15-13-12--8------8--10-----10--5-----5--3-|
G|----0----------0----------0-------------------0----------0---------0--------|
D|----------------------------------------------------------------------------|
A|-14---14----15---15----12---12----17-15-14--10---10---12---12----7---7----5-|
E|----------------------------------------------------------------------------|


Variations to verse:

e|----------------------------------------------------------------------------|
B|-12-----12--13-----13--10-----10--15-13-12--8----8--7----7-------5--3-3-----|
G|----0----------0----------0-------------------0-------0-----------0---------|
D|----------------------------------------------------------------------------|
A|-14---14----15---15----12---12----17-15-14--10---10-10---10--5H7----5-5-----|
E|----------------------------------------------------------------------------|

H-Hammer-On
Tap to rate this tab
 
# A B C D E F G H I J K L M N O P Q R S T U V W X Y Z