Alter Bridge - Life Must Go On tab

Alter Bridge - Life Must Go On from the album "Alter Bridge III"
Tab is from the booklet that comes with Mark Tremonti's "The sound and the Story"
Song written by Mark Tremonti and Myles Kennedy


D5 tuning (DADADD)
3/4 time

   Intro - Finger Picking
D----------------------|--------------------|---------------0--|---------------------|
D---------2-2h4---4/5--|----------------2p0-|---------------0--|-----------------2p0-|
A---4h5----------------|---0-----4-4h5------|--0----4-4h5---0--|---0-----4-4h5-------|
D-0-----0-------0------|----0---------------|---0-----------0--|----0----------------|
A----------------------|-4-----4------0-----|------------------|---------------------|
D----------------------|--------------------|-5----5------5----|-4-----4------0------|

D----------------------|--------------------|---------------0--|------------------0--|
D---------2-2h4---4/5--|----------------2p0-|---------------0--|------------------0--|
A---4h5----------------|---0-----4-4h5------|--0----4-4h5---0--|---0-----4-4h5----0--|
D-0-----0-------0------|----0---------------|---0-----------0--|----0-------------0--|
A----------------------|-4-----4------0-----|------------------|---------------------|
D----------------------|--------------------|-5----5------5----|-4-----4-------0-----|

D-----------0----------|--------------------|------------------|
D-------------0--------|--0----5------------|---------12-------|
A---0-----------4------|---0-----4h5p4p0----|---------0--------|
D-----4-----------4----|----0-----------5/7-|---------0--------|
A-2-----2--------------|--------------------|---------0--------|
D----------------------|5-----5-------------|---------0--------|
Tap to rate this tab
 
# A B C D E F G H I J K L M N O P Q R S T U V W X Y Z