Alter Bridge - Wonderful Life tab

Tuning: Open G tuning (D,G,D,G,B,D)
D--9-----10------7------/12-10-9--------------------------------|
B---------------------------------8------7------3h5------3------|
G------0------0------0----------------0------0--------0-------0-|
D---------------------------------------------------------------|
G---------------------------------------------------------------|
D---------------------------------------------------------------|
                                                         
D--9-----10------7h8-/12-10-9---------------------------*12--|
B--------------------------------8------7------3h5------*12--|
G------0------0----------------------0------0-------0---*12--|
D------------------------------------------------------------|
G------------------------------------------------------------|
D------------------------------------------------------------|
Tap to rate this tab
 
# A B C D E F G H I J K L M N O P Q R S T U V W X Y Z