Alter Bridge - Life Must Go On tab

Song: Life must go on
Band: Alter Bridge
Album: Alter Bridge III

--------------------------------------------------------------------
Tuning: DDADAD (Like tuning in the song "Open Your eyes")

Intro(Clean)
Play this riff 2 times
D|--------2-2h4---4h5----------------------------------0----------------0--|
D|----0h2----------------------------------------------0----------------0--|
A|----------------------4----4-4h5---7p5---2---4-4h5--------0---4-4h5------|
D|--0-----------0----------------------------------------------------------|
A|--------------------4---4--------4-----2---2-------2----0---0-------0----|
D|-------------------------------------------------------------------------|

D|--------0---------------------5--------------0---|
D|----0-----0-----------0----------0-----------0---|
A|------------4-----------0---------0----------0---|
D|--0---0-------5-----------2--------2---------0---|
A|----------------7-----------4-------4/7----------|
D|-------------------/5----------------------------|

Continue of intro(Distorted)
         Play this riff 2 times
D|-----|--------------------------------------------------------------------|
D|-----|--------------------------------------------------------------------|
A|-----|-10-10-10-10-10-9-9-9-9-9--7-9-9-9-9-9--9-7-7-7-7-7-----------------|
D|-5-7-|-x--x--x--x--x-/x-x-x-x-x--x/x-x-x-x-x--x/x-x-x-x-x-7-7-7-7-7-7-7-7-|
A|-5-7-|-10-10-10-10-10-9-9-9-9-9--7-9-9-9-9-9--9-7-7-7-7-7-7-7-7-7-7-7-7-7-|
D|-5-7-|-0--0--0--0--0--0-0-0-0-0--0-0-0-0-0-0--0-0-0-0-0-0-7-7-7-7-7-7-7-7-|

Verce Chords(Clean)
            1:05
D|--0-5-7-|-0-0-0-0-0-0---|
D|--0-5-7-|-0-0-0-0-0-0---|
A|--0-5-7-|-7-9-9-9-9-9---|
D|--0-5-7-|-x/x-x-x-x-x---|
A|--0-5-7-|-7-9-9-9-9-9---|
D|--0-5-7-|-0-0-0-0-0-0---|

Chorus Chords
D|-------------------|-----------------------|
D|-------------------|-----------------------|
A|-------------------|-----------------------|
D|---0---7---9---5---|---0---7---9---7---5---|
A|---0---7---9---5---|---0---7---9---7---5---|
D|---0---7---9---5---|---0---7---9---7---5---|

Post-Chorus
D|------------------------|
D|------------------------|
A|--5b7---8b9-8b9-8b9-7---|
D|------------------------|
A|------------------------|
D|------------------------|

Bridge
2:37-3:17
Play this riff 2 times
D|-------------------------------------------------------------------------|
D|-------------------------------------------------------------------------|
A|-------------------------------------------------------------------------|
D|---9-9-9-9--x-x-x-x--5-5-5-5-5-5-5-5--0-0-0-0-0-0-0-0--7-7-7-7-7-7-7-7---|
A|---9-9-9-9--x-x-x-x--5-5-5-5-5-5-5-5--0-0-0-0-0-0-0-0--7-7-7-7-7-7-7-7---|
D|---9-9-9-9--x-x-x-x--5-5-5-5-5-5-5-5--0-0-0-0-0-0-0-0--7-7-7-7-7-7-7-7---|

D|--------2-2h4---4h5----------------------------------0----------------0--|
D|----0h2------------------------------------------------------------------|
A|----------------------4----4-4h5---7p5---2---4-4h5--------0---4-4h5------|
D|--0-----------0----------------------------------------------------------|
A|--------------------4---4--------4-----2---2-------2----0---0-------0----|
D|-------------------------------------------------------------------------|

D|--------2-2h4---4h5----------------------------------0----------------0--|
D|----0h2------------------------------------------------------------------|
A|----------------------4----4-4h5---7p5---2---4-4h5--------0---4-4h5------|
D|--0-----------0----------------------------------------------------------|
A|--------------------4---4--------4-----2---2-------2----0---0-------0----|
D|-------------------------------------------------------------------------|


4:00-4:17
1 Guitar(x2)
D|-------------------|
D|-------------------|
A|-------------------|
D|---0---9---5---7---|
A|---0---9---5---7---|
D|---0---9---5---7---|
                  \Second time let ring this chord!
2 Guitar
D|-------------------------------------------------------------|
D|--------------------13-12--12------------------13-12----12---|
A|---/10--10-12-11-10------14----10--10-12-11-10------(14)-----|
D|-------------------------------------------------------------|
A|-------------------------------------------------------------|
D|-------------------------------------------------------------|

D|-------------------------------------------------------------|
D|------------12-15-17-19b20---19p17-19-17p15-17-(17)=b19r17---|
A|--10--10-12--------------------------------------------------|
D|-------------------------------------------------------------|
A|-------------------------------------------------------------|
D|-------------------------------------------------------------|

D|------------------------------------------------------------|
D|--------------------13-12--12-------------------17v-16-17v--|
A|---/10--10-12-11-10------14----10--10-12-11-10--------------|
D|------------------------------------------------------------|
A|------------------------------------------------------------|
D|------------------------------------------------------------|

D|--/19b20r19---19-17-16---17-16-14------------------|
D|------------------------------------16-15-14-------|
A|---------------------------------------------12v---|
D|---------------------------------------------------|
A|---------------------------------------------------|
D|---------------------------------------------------|
Tap to rate this tab
 
# A B C D E F G H I J K L M N O P Q R S T U V W X Y Z