Song name
# A B C D E F G H I J K L M N O P Q R S T U V W X Y Z

Alter Bridge - Make It Right tab

Intro/verse

Play this riff 6 times
Eb|--------------------------------|
Bb|--------------------------------|
Gb|-----2------2------2------4-----|
Db|----5-5----5-5----5-5----5-5----|
Ab|---0---0--0---0--0---0--0---0---|
Eb|--5------5------3------3--------|

Eb|--------------------------------|
Bb|--------------------------------|
Gb|-----7------7------6------6-----|
Db|----7-7----7-7----7-7----7-7----|
Ab|---0---0--0---0--0---0--0---0---|
Eb|--5------5------5------5--------|

Tap to rate this tab
 
# A B C D E F G H I J K L M N O P Q R S T U V W X Y Z